» » »

Old Mans Child, The Millenium King Tabs (ver.1)

Artists:  A B C D E F G H I J K L M N O P Q R S T U V W X Y Z # 

The Millenium King Tabs (ver.1)

Old Mans Child Tabs
 Rating:
3.6/5 (5 votes)
The Millenium King lessons Tabs too difficult? Try these video lessons and learn fast
1
                ----------------------------------------------------------------------------

                  "The Millennium King" by Old Man's Child 
                    from the album "The Pagan Prosperity"

----------------------------------------------------------------------------

----------------------------------------------------------------------------

the original tablature was in the wrong tuning. 
the notes were all accurate, so nothing is corrected there
i just moved everything to the correct positions
and added a some missing harmonies and melodies

i'm confident that this tuning is correct because almost ever other
old man's child song is in Em, Am and Dm and in standard tuning.

so here is a correct version...
----------------------------------------------------------------------------


standard tuning (EBGDAE)

Part A (key of Em)

    (Em)                (Am)
E|------------------------------------------|
B|------------------------------------------|
G|------------------------------------------|
D|-------9"------------------7"---9"---10"--|
A|--7"--------10"--9"-----------------------|
E|----------------------8"------------------|

    (B)                 (Em)
E|------------------------------------------|
B|------------------------------------------|
G|------------------------------------------|
D|------------------------------------------|
A|-------9"---7"---6"--------7"---9"---10"--|
E|--7"------------------0"------------------|

    (Em)                (Am)
E|------------------------------------------|
B|------------------------------------------|
G|------------------------------------------|
D|-------9"------------------7"---9"---10"--|
A|--7"--------10"--9"-----------------------|
E|----------------------8"------------------|

    (Em)                     F#5       D#5
E|------------------------------------------|
B|------------------------------------------|
G|------------------------------------------|
D|---------------------------4---------1----|
A|-------9"---7"---6"--------4---------1----|
E|--7"------------------2222-2----2222------|
                        ****      ****

transition A is an E5 chord

Part B is just Part A played in halftime with palmmutes

Part C

Gtr1&2
    C5       B5                 B5          B5
E|---------------------------------------------|
B|---------------------------------------------|
G|--5--------4---------------------------------|
D|--5--------4------------------4-----------4--|
A|--3--------2------------------2-----------2--|
E|--------------------000000000---000000000----|


    C5       B5/D#5             D#5         D#5
E|---------------------------------------------|
B|---------------------------------------------|
G|--5--------4/8-------------------------------|
D|--5--------4/8----------------8-----------8--|
A|--3--------2/6----------------6-----------6--|
E|--------------------000000000-6-000000000-6--|
                      *********   *********

Gtr1
    C5       B5                 B5          B5
E|---------------------------------------------|
B|---------------------------------------------|
G|--5--------4---------------------------------|
D|--5--------4------------------4-----------4--|
A|--3--------2------------------2-----------2--|
E|--------------------000000000---000000000----|
Gtr2
E|---------------------------------------------|
B|---------------------------------------------|
G|---------------------------------------------|
D|---------------------------------------------|
A|--7~~---7--6--7--9--10~~~--------------------|
E|---------------------------------------------|

Gtr!
    C5       B5/D#5             D#5         D#5
E|---------------------------------------------|
B|---------------------------------------------|
G|--5--------4/8-------------------------------|
D|--5--------4/8----------------8-----------1--|
A|--3--------2/6----------------6-----------1--|
E|--------------------000000000-6-000000000----|
Gtr2                  *********   *********
E|---------------------------------------------|
B|---------------------------------------------|
G|---------------------------------------------|
D|---------------------------------------------|
A|--7~~---7--6---------------------------------|
E|---------------------------------------------|

Gtr 2 melody (second time)


Part D
   
    E5     G5     F#5    D#5E5     G5     A5     F#5
E|--------------------------------------------------|
B|--------------------------------------------------|
G|--------------------------------------------------|
D|--2------5------4------1--2------5------7------4--|
A|--2------5------4------1--2------5------7------4--|
E|--0---00-3---00-2---00--------00-3---00-5---00-2--|
        **     **     **        **     **     **


Keyboards alone:

Transition B

    B5 A5 G5
E|-----------|
B|-----------|
G|-----------|
D|--9--7--5--|
A|--9--7--5--|
E|--7--5--3--|

Part E (key changes to Am)

    A5    F5    C5    G5    A5    F5    G5
E|------------------------------------------------|
B|------------------------------------------------|
G|--2-----------5-----------2---------------------|
D|--2-----3-----5-----5-----2-----3-----5---------|
A|--0-----3-----3-----5-----0-----3-----5---------|
E|--------1-----------3-----------1-----3---------|


    A5    F5    C5    G5    E5      E5  D5  C5
E|----------------------------------------------|
B|----------------------------------------------|
G|--2-----------5------------------/9---7---5---|
D|--2-----3-----5-----5-----2------/9---7---5---|
A|--0-----3-----3-----5-----2------/7---5---3---|
E|--------1-----------3-----0-------------------|

Part F (Part E transposed to Dm)

    D5    Bb5   F5    C5    D5    Bb5   C5
E|------------------------------------------------|
B|------------------------------------------------|
G|--7-----------10----------7---------------------|
D|--7-----8-----10----10----7-----8-----10--------|
A|--5-----8-----8-----10----5-----8-----10--------|
E|--------6-----------8-----------6-----8---------|

    D5    Bb5   F5    C5    A5     A5   G5  F5
E|----------------------------------------------|
B|----------------------------------------------|
G|--7-----------10-----------------/9---7---5---|
D|--7-----8-----10----10----7------/7---5---3---|
A|--5-----8-----8-----10----7-------------------|
E|--------6-----------8-----5-------------------|

Solo

E|-t17p15p10-t17p15p10t-17p15p10t-17p15p10-|
B|-----------------------------------------|
G|-----------------------------------------|
D|-----------------------------------------|
A|-----------------------------------------|
E|-----------------------------------------|

E|-t18p15p10-t18p15p10t-18p15p10t-18p15p10-|
B|-----------------------------------------|
G|-----------------------------------------|
D|-----------------------------------------|
A|-----------------------------------------|
E|-----------------------------------------|

E|-t17p13p8--t17p13p8--t17p13p8--t17p13p8--|
B|-----------------------------------------|
G|-----------------------------------------|
D|-----------------------------------------|
A|-----------------------------------------|
E|-----------------------------------------|

E|-t15p13p8--t15p13p8--t15p13p8--t15p13p8--|
B|-----------------------------------------|
G|-----------------------------------------|
D|-----------------------------------------|
A|-----------------------------------------|
E|-----------------------------------------|

E|-t13p10p5--t13p10p5--t13p10p5--t13p10p5--|
B|-----------------------------------------|
G|-----------------------------------------|
D|-----------------------------------------|
A|-----------------------------------------|
E|-----------------------------------------|

E|-t12p10p6--t12p10p6--t12p10p6--t12p10p6--|
B|-----------------------------------------|
G|-----------------------------------------|
D|-----------------------------------------|
A|-----------------------------------------|
E|-----------------------------------------|

gtr 1
E|-----------------------------------------|
B|-11~~~-10~~~----8~~~--8~~~-10~~~---11~~~-|
G|-----------------------------------------|
D|-----------------------------------------|
A|-----------------------------------------|
E|-----------------------------------------|
gtr 2
E|-----------------------------------------|
B|-----------------------------------------|
G|-10~~~--9~~~----7~~~--7~~~--9~~~---10~~--|
D|-----------------------------------------|
A|-----------------------------------------|
E|-----------------------------------------|

harmony in 3rds

gtr1
E|-------------------------------------|
B|-------------------------------------|
G|--7h9h10---7h9h10---9h10h12--9h10h12-|
D|-------------------------------------|
A|-------------------------------------|
E|-------------------------------------|
gtr2                                   |
E|-------------------------------------|
B|-------------------------------------|
G|-10h12h14-10h12h14-12h14h15-12h14h15-|
D|-------------------------------------|
A|-------------------------------------|
E|-------------------------------------|

gtr1
E|-------------------------------------|
B|--6h8h10---6h8h10---8h10h11--8h10h11-|
G|-------------------------------------|
D|-------------------------------------|
A|-------------------------------------|
E|-------------------------------------|
gtr2                                   |
E|-------------------------------------|
B|-11h13h15-11h13h15-13h15h17-13h15h17-|
G|-------------------------------------|
D|-------------------------------------|
A|-------------------------------------|
E|-------------------------------------|

gtr 1 alone again

E|-13---12h13p12-10----------------------|
B|--------------------13---11---10-------|
G|-----------------------------------12--|
D|---------------------------------------|
A|---------------------------------------|
E|---------------------------------------|

E|--------------------------------------------|
B|-10h11p10~~~~~------------------------------|
G|--------------------12--10--9------9~~~~~~~-|
D|-------------------------------12-----------|
A|--------------------------------------------|
E|--------------------------------------------|

E|-----------------------------------------|
B|-----------------------------------------|
G|-------------10p9p7----------------------|
D|-12--\10---9--------10p8p7-8p7p5---------|
A|---------------------------------8p6p5---|
E|-----------------------------------------|

E|------------------------------------------------------|
B|-----------------------6-8/10~~~-8h10p8-6-------------|
G|-----------------7-5-7----------------------9---7~~~--|
D|-------3-5-3-5/7--------------------------------------|
A|-5-3-5------------------------------------------------|
E|------------------------------------------------------|

harmony again
gtr1
E|-------------10-12-13-10-12--------------|
B|/10-11----10----------------10~~~~-------|
G|-------12--------------------------------|
D|-----------------------------------------|
A|-----------------------------------------|
E|-----------------------------------------|
gtr2 (not positive about this)
E|-----------------------------------------|
B|-----------------------------------------|
G|-10-12----10~10-12-14-10-12--------------|
D|-------14-------------------14~~~~-------|
A|-----------------------------------------|
E|-----------------------------------------|

gtr 1 alone again

E|-----------------------------------------|
B|-----------------------------------------|
G|-7---7-7-9-10-9-7------------------------|
D|--------------------8---8-8-10-12-10-8---|
A|-----------------------------------------|
E|-----------------------------------------|

E|---------------------------------------------------|
B|---------------------------------------------------|
G|-10---10-10-12-14-12-10---9---------------9~~~~----|
D|-------------------------------12----10------------|
A|---------------------------------------------------|
E|---------------------------------------------------|

E|-5h7h8-7~~~~~--------------------------------------|
B|---------------------------------------------------|
G|---------------------------------------------------|
D|---------------------------------7h9h10-7~~~~~-----|
A|--------------------5h7h8-7h8h10-------------------|
E|--------------5h7h8--------------------------------|

Riff G (change to Am again)

pm this whole riff

   (Am)                    (F)
E|-------------------------------------------------|
B|-------------------------------------------------|
G|-------------------------------------------------|
D|-------------------------------------------------|
A|-------------------------------------------------|
E|-5-5-5-8-5-5-5-5-5-8-5-5-1-1-1-5-1-1-1-1-1-5-1-1-|

   (C)                     (Em)        (G)
E|-------------------------------------------------|
B|-------------------------------------------------|
G|-------------------------------------------------|
D|-------------------------------------------------|
A|-3-3-3-7-3-3-3-3-3-7-3-3-------------------------|
E|-------------------------0-0-0-3-0-0-3-3-3-7-3-3-|

   (Am)                    (F)
E|-------------------------------------------------|
B|-------------------------------------------------|
G|-------------------------------------------------|
D|-------------------------------------------------|
A|-------------------------------------------------|
E|-5-5-5-8-5-5-5-5-5-8-5-5-1-1-1-5-1-1-1-1-1-5-1-1-|

   (G)                     (G7)
E|-------------------------------------------------|
B|-------------------------------------------------|
G|-------------------------------------------------|
D|-------------------------------------------------|
A|-------------------------------5-5-5-7-7-7-8-8-8-|
E|-3-3-3-7-3-3-3-3-3-7-3-3-3-3-3-------------------|


   (Am)                    (F)
E|-------------------------------------------------|
B|-------------------------------------------------|
G|-------------------------------------------------|
D|-------------------------------------------------|
A|-------------------------------------------------|
E|-5-5-5-8-5-5-5-5-5-8-5-5-1-1-1-5-1-1-1-1-1-5-1-1-|

   (C)                     (Am/E)
E|-------------------------------------------------|
B|-------------------------------------------------|
G|-------------------------------------------------|
D|-------------------------------------------------|
A|-3-3-3-7-3-3-3-3-3-7-3-3-------7-7-7-5-5-5-3-3-3-|
E|-------------------------0-0-0-------------------|

   (Em)                    (F)
E|-------------------------------------------------|
B|-------------------------------------------------|
G|-------------------------------------------------|
D|-------------------------------------------------|
A|-------------------------------------------------|
E|-0-0-0-3-0-0-0-0-0-3-0-0-1-1-1-5-1-1-1-1-1-5-1-1-|

   (G)                     (G7)
E|-------------------------------------------------|
B|-------------------------------------------------|
G|-------------------------------------------------|
D|-------------------------------------------------|
A|-------------------------------5-5-5-7-7-7-8-8-8-|
E|-3-3-3-7-3-3-3-3-3-7-3-3-3-3-3-------------------|
            
Submit corrections

comments powered by Disqus
↑ Back to top | Old Mans Child Tabs for The Millenium King. Lyrics for acoustic guitar and electric guitar. 1 Tablatures and chords are parodies/interpretations of the original songs. You may use it for private study, scholarship, research or language learning purposes only