» » »

Old Mans Dream Tabs (ver.1)

Artists:  A B C D E F G H I J K L M N O P Q R S T U V W X Y Z # 

Old Mans Dream Tabs (ver.1)

Old Mans Child
Rating:
0/5 (0 votes)

Hard to play? Try these video lessons and learn fast.
                .  - palm mute           /  - slide up to
\  - slide down to       ~  - vibrato
h  - hammer on           b  - Bend
p  - pull off            Suffixes for bend
t  - tap                 f  - full bend    h - half bend
ph - pinched harmonic    q  - quarter bend t - tap bend
*  - see comment         ^  - Hold bend    r release bend
x  - Stuccatto           ~  - vibrato bend
,  - slight palm mute    () - ghost note, sustained note
"  - tremolo picking        <> - Trill

Tunning E A D G B E


RIFF 1 (2 TIMES)

|------------------|------------------|------------------|---------------------|
|------------------|------------------|------------------|---------------------|
|------------------|------------------|------------------|---------------------|
|------------------|------------------|------------------|---------------------|
|-7--5--3----------|-5--3--2----------|-7--5--3----------|-5--3--2-----2--3--2-|
|-5--3--1----------|-3--1--0----------|-5--3--1----------|-3--1--0-----0--1--0-|


RIFF 1A (2 TIMES)

|------------------|------------------|------------------|---------------------|
|------------------|------------------|------------------|---------------------|
|------------------|------------------|------------------|---------------------|
|------------------|------------------|------------------|---------------------|
|-7--5--3-3"-------|-5--3--2-2"-------|-7--5--3-3"-------|-5--3--2-----2--3--2-|
|-5--3--1-1"-------|-3--1--0-0"-------|-5--3--1-1"-------|-3--1--0-----0--1--0-|

RIFF 2 (2 TIMES)

|----------------------------------|--------------------------------|
|----------------------------------|--------------------------------|
|----------------------------------|--------------------------------|
|----------------------------------|--------------------------------|
|-2-3-2---2-3-2---2-3-3/7---7-5-2--|-2-3-2---2-3-5---5-3-2---2-3-2--|
|-0-1-0---0-1-0---0-1-1/5---5-3-0--|-0-1-0---0-1-3---3-1-0---0-1-0--|

VERSE (W/ RIFF 2, 2 TIMES)
GUITAR 2                                                     *
|----------------------------------|--------------------------------|
|-5-6-5---5-6-5---5-6-6/10-10-8-5--|-5-6-5---5-6-8---8-6-5---5-6-5--|
|----------------------------------|--------------------------------|
|----------------------------------|--------------------------------|
|----------------------------------|--------------------------------|
|----------------------------------|--------------------------------|
(* THE SECOND TIME IN THIS POINT PASS TO RIFF 1A)

RIFF 1A (2 TIMES)

|------------------|------------------|------------------|---------------------|
|------------------|------------------|------------------|---------------------|
|------------------|------------------|------------------|---------------------|
|------------------|------------------|------------------|---------------------|
|-7--5--3-3"-------|-5--3--2-2"-------|-7--5--3-3"-------|-5--3--2-----2--3--2-|
|-5--3--1-1"-------|-3--1--0-0"-------|-5--3--1-1"-------|-3--1--0-----0--1--0-|

FIG 1 W/ KEYBOARDS (2 TIMES)
 GUITAR 1
|--------------------------------------------------------------|
|--------------------------------------------------------------|
|--------------------------------------------------------------|
|-12-10-9----------9-12-----------12-9----------9-12-----------|
|-10--8-7-7"-------7-10-10"-------10-7-7"-------7-10-10"-------|
|--------------------------------------------------------------|
|
|
|GUITAR 2 ~~~~         ~~~~~          ~~~~~         ~~~~~
|--------------------------------------------------------------|
|--------------------------------------------------------------|
|-12-10-9----------9-12-----------12-9----------9-12-----------|
|--------------------------------------------------------------|
|--------------------------------------------------------------|
|--------------------------------------------------------------|


GUITAR 1
|--------------------------------------------------------------|
|--------------------------------------------------------------|
|--------------------------------------------------------------|
|-10-9-7----------7-10-----------10-7-----------7-10-----------|
|--8-7-5-5"-------5--8-8"---------8-5-5"--------5--8-8"--------|
|--------------------------------------------------------------|
|
|
|GUITAR 2 ~~~          ~~~~~          ~~~~~          ~~~~~
|--------------------------------------------------------------|
|--------------------------------------------------------------|
|-10-9-7----------7-10-----------10-7-----------7-10-----------|
|--------------------------------------------------------------|
|--------------------------------------------------------------|
|--------------------------------------------------------------|

RIFF 1A (2 TIMES)

|------------------|------------------|------------------|---------------------|
|------------------|------------------|------------------|---------------------|
|------------------|------------------|------------------|---------------------|
|------------------|------------------|------------------|---------------------|
|-7--5--3-3"-------|-5--3--2-2"-------|-7--5--3-3"-------|-5--3--2-----2--3--2-|
|-5--3--1-1"-------|-3--1--0-0"-------|-5--3--1-1"-------|-3--1--0-----0--1--0-|

RIFF 2 (4 TIMES)

|----------------------------------|--------------------------------|
|----------------------------------|--------------------------------|
|----------------------------------|--------------------------------|
|----------------------------------|--------------------------------|
|-2-3-2---2-3-2---2-3-3/7---7-5-2--|-2-3-2---2-3-5---5-3-2---2-3-2--|
|-0-1-0---0-1-0---0-1-1/5---5-3-0--|-0-1-0---0-1-3---3-1-0---0-1-0--|

FIG 2 (8 TIMES)
 GUITAR 1 W/ TREMOLO PICKING                    ~~~~~~~
|--------------------------------------------------------|
|--------------------------------------------------------|
|--------------------------------------------------------|
|--------------------------------------------------------|
|--8---7---8---7---8---7---8---7---8---7---8---7---------|
|--------------------------------------------------------|
|
|
|
|GUITAR 2       ~~~~~~~         ~~~~~~~~        ~~~~~~~
|--------------------------------------------------------|
|--------------------------------------------------------|
|--------------------------------------------------------|
|--------------------------------------------------------|
|-(8)----------7---------------8---------------7---------|
|--------------------------------------------------------|

FIG 1 W/ KEYBOARDS (4 TIMES)
 GUITAR 1
|--------------------------------------------------------------|
|--------------------------------------------------------------|
|--------------------------------------------------------------|
|-12-10-9----------9-12-----------12-9----------9-12-----------|
|-10--8-7-7"-------7-10-10"-------10-7-7"-------7-10-10"-------|
|--------------------------------------------------------------|
|
|
|GUITAR 2 ~~~~         ~~~~~          ~~~~~         ~~~~~
|--------------------------------------------------------------|
|--------------------------------------------------------------|
|-12-10-9----------9-12-----------12-9----------9-12-----------|
|--------------------------------------------------------------|
|--------------------------------------------------------------|
|--------------------------------------------------------------|


GUITAR 1
|--------------------------------------------------------------|
|--------------------------------------------------------------|
|--------------------------------------------------------------|
|-10-9-7----------7-10-----------10-7-----------7-10-----------|
|--8-7-5-5"-------5--8-8"---------8-5-5"--------5--8-8"--------|
|--------------------------------------------------------------|
|
|
|GUITAR 2 ~~~          ~~~~~          ~~~~~          ~~~~~
|--------------------------------------------------------------|
|--------------------------------------------------------------|
|-10-9-7----------7-10-----------10-7-----------7-10-----------|
|--------------------------------------------------------------|
|--------------------------------------------------------------|
|--------------------------------------------------------------|


RIFF 1 (2 TIMES)

|------------------|------------------|------------------|---------------------|
|------------------|------------------|------------------|---------------------|
|------------------|------------------|------------------|---------------------|
|------------------|------------------|------------------|---------------------|
|-7--5--3----------|-5--3--2----------|-7--5--3----------|-5--3--2-----2--3--2-|
|-5--3--1----------|-3--1--0----------|-5--3--1----------|-3--1--0-----0--1--0-|


RIFF 1A (2 TIMES)

|------------------|------------------|------------------|---------------------|
|------------------|------------------|------------------|---------------------|
|------------------|------------------|------------------|---------------------|
|------------------|------------------|------------------|---------------------|
|-7--5--3-3"-------|-5--3--2-2"-------|-7--5--3-3"-------|-5--3--2-----2--3--2-|
|-5--3--1-1"-------|-3--1--0-0"-------|-5--3--1-1"-------|-3--1--0-----0--1--0-|


FIG 2 (FADE OUT)
 GUITAR 1 W/ TREMOLO PICKING                    ~~~~~~~
|--------------------------------------------------------|
|--------------------------------------------------------|
|--------------------------------------------------------|
|--------------------------------------------------------|
|--8---7---8---7---8---7---8---7---8---7---8---7---------|
|--------------------------------------------------------|
|
|
|
|GUITAR 2       ~~~~~~~         ~~~~~~~~        ~~~~~~~
|--------------------------------------------------------|
|--------------------------------------------------------|
|--------------------------------------------------------|
|--------------------------------------------------------|
|-(8)----------7---------------8---------------7---------|
|--------------------------------------------------------|

 W/ ACUSTIC GUITAR

INTRO
|----------------------------------------------------|
|----------------------------------------------------|
|----------------------------------------------------|
|-6-/--8--8----4-/-6-6-6---6------6-/--8---8---------|
|-8-/-10-10----6-/-8-8---8---8----8-/-10-10---6------|
|-0--------------------------------------------------|

MAIN PART (4 ITMES)
|------------------------------------------|
|------------------------------------------|
|-----3---3-----3-5-3---3---1---0-0-0h1-1--|
|---2---2-----2----------------------------|
|------------------------------------------|
|-0---------0---------0---0---0---0-0-0-0--|


OUTRO
|------------------------------------------|
|------------------------------------------|
|-4-4--4"-------3"-------6"-------5"-------|
|-1--1-1"-------1"-------3"-------3"-------|
|------------------------------------------|
|------------------------------------------|


MAIN PART (4 TIMES)
OUTRO
MAIN PART (4 TIMES)
OUTRO
MAIN PART (2 TIMES, THE THIRD ONE SLOWLY)
THE NEXT PART I DON'T CATCH IT
            
Hard to play? Try these video lessons and learn fast. | Correct




comments powered by Disqus
↑ Back to top | Tablatures and chords are parodies/interpretations of the original songs. You may use it for private study, scholarship, research or language learning purposes only