» » »

My Evil Revelations Bass tabs (ver.1)

Artists:  A B C D E F G H I J K L M N O P Q R S T U V W X Y Z # 

My Evil Revelations Bass tabs (ver.1)

Old Mans Child
Rating:
0/5 (0 votes)

Tabs too difficult? Try these video lessons and learn fast.
                5 string bass

D||-------------------|----------0--------|-------------------|
A||-------------------|-------------------|-------------------|
E||--0----------------|-------------------|--0----------------|
B||-------------------|-------------------|-------------------|


                                                                                
-------------------|-------------------|----------0--------|-------------------|
----------2--------|-------------------|-------------------|-------------------|
-------------------|--0----------------|-------------------|--0----------------|
-------------------|-------------------|-------------------|-------------------|


                                                                                
-------------------|-------------------|----------0--------|-------------------|
----------2--------|-------------------|-------------------|-------------------|
-------------------|--0----------------|-------------------|--0----------------|
-------------------|-------------------|-------------------|-------------------|


                                                                                
-------------------|-------------------|----------0--------|-------------------|
----------2--------|-------------------|-------------------|-------------------|
-------------------|--0----------------|-------------------|--0----------------|
-------------------|-------------------|-------------------|-------------------|


                                                                     
-------------------|----------------------|-------------------------|
----------2--------|----------------------|-------------------------|
-------------------|----------------------|-------------------------|
-------------------|--5----5----5----5----|--5----5----3--3-3-3--6--|


                                                                        
----------------------|-------------------------|----------------------|
----------------------|-------------------------|----------------------|
----------------------|----------------------2--|----------------------|
--5----5----5----5----|--5----5----0--0-0-0-----|--5----5----5----5----|


                                                                           
-------------------------|----------------------|-------------------------|
-------------------------|----------------------|-------------------------|
-------------------------|----------------------|----------------------2--|
--5----5----3--3-3-3--6--|--5----5----5----5----|--5----5----0--0-0-0-----|


                                                           
----------------------------|-----------------------------|
----------------------------|-----------------------------|
--0-0-0----0-0-0-0-0----0-0-|-----------------------------|
----------------------------|--0-0-0----0-0-0-0-0--4-4-4--|


                                                           
----------------------------|-----------------------------|
----------------------------|-----------------------------|
--0-0-0----0-0-0-0-0----0-0-|-----------------------------|
----------------------------|--0-0-0----0-0-0-0-0--7-7-7--|


                                                           
----------------------------|-----------------------------|
----------------------------|-----------------------------|
--0-0-0----0-0-0-0-0----0-0-|-----------------------------|
----------------------------|--0-0-0----0-0-0-0-0--4-4-4--|


                                                           
----------------------------|-----------------------------|
----------------------------|-----------------------------|
--0-0-0----0-0-0-0-0----0-0-|-----------------------------|
----------------------------|--0-0-0----0-0-0-0-0--7-7-7--|


                                                           
----------------------------|-----------------------------|
----------------------------|-----------------------------|
--0-0-0----0-0-0-0-0----0-0-|-----------------------------|
----------------------------|--0-0-0----0-0-0-0-0--4-4-4--|


                                                           
----------------------------|-----------------------------|
----------------------------|-----------------------------|
--0-0-0----0-0-0-0-0----0-0-|-----------------------------|
----------------------------|--0-0-0----0-0-0-0-0--7-7-7--|


                                                           
----------------------------|-----------------------------|
----------------------------|-----------------------------|
--0-0-0----0-0-0-0-0----0-0-|-----------------------------|
----------------------------|--0-0-0----0-0-0-0-0--4-4-4--|


                                                                                
----------------------------|-----------------------------|------|------|------|
----------------------------|-----------------------------|------|------|------|
--0-0-0----0-0-0-0-0----0-0-|-----------------------------|------|------|------|
----------------------------|--0-0-0----0-0-0-0-0--7-7-7--|------|------|------|


                                                                             
------|------|------|------|------|------|------|------|------|------|------|
------|------|------|------|------|------|------|------|------|------|------|
------|------|------|------|------|------|------|------|------|------|------|
------|------|------|------|------|------|------|------|------|------|------|


                                                               
------|------|----------------------|-------------------------|
------|------|----------------------|-------------------------|
------|------|----------------------|-------------------------|
------|------|--5----5----5----5----|--5----5----3--3-3-3--6--|


                                                                     
----------------------|-------------------------|-------------------|
----------------------|-------------------------|--3----------------|
----------------------|----------------------2--|-------------------|
--5----5----5----5----|--5----5----0--0-0-0-----|-------------------|


                                                                       
--0--------5----4----|----------------------|-------------------------|
---------------------|----------------------|-------------------------|
---------------------|----------------------|-------------------------|
---------------------|--5----5----5----5----|--5----5----3--3-3-3--6--|


                                                                     
----------------------|-------------------------|-------------------|
----------------------|-------------------------|--3----------------|
----------------------|----------------------2--|-------------------|
--5----5----5----5----|--5----5----0--0-0-0-----|-------------------|


                                                   
--0--------5----4----|----------------------------|
---------------------|----------------------------|
---------------------|--0-0-0----0-0-0-0-0----0-0-|
---------------------|----------------------------|


                                                           
-----------------------------|----------------------------|
-----------------------------|----------------------------|
-----------------------------|--0-0-0----0-0-0-0-0----0-0-|
--0-0-0----0-0-0-0-0--4-4-4--|----------------------------|


                                                           
-----------------------------|----------------------------|
-----------------------------|----------------------------|
-----------------------------|--0-0-0----0-0-0-0-0----0-0-|
--0-0-0----0-0-0-0-0--7-7-7--|----------------------------|


                                                           
-----------------------------|----------------------------|
-----------------------------|----------------------------|
-----------------------------|--0-0-0----0-0-0-0-0----0-0-|
--0-0-0----0-0-0-0-0--4-4-4--|----------------------------|


                                                                          
-----------------------------|--------------------|----------------------|
-----------------------------|--------------------|----------------------|
-----------------------------|--------------------|----------------------|
--0-0-0----0-0-0-0-0--7-7-7--|--5--------5--------|--1----------0--1--3--|


                                                                 
--------------------|----------------------|--------------------|
--------------------|----------------------|--------------------|
--------------------|----------------------|--------------------|
--5--------5--------|--0----------0--1--3--|--5--------5--------|


                                                                   
----------------------|--------------------|----------------------|
----------------------|--------------------|----------------------|
----------------------|--------------------|----------------------|
--1----------0--1--3--|--5--------5--------|--0----------0--1--3--|


                                                                 
--------------------|----------------------|--------------------|
--------------------|----------------------|--------------------|
--------------------|----------------------|--------------------|
--5--------5--------|--1----------0--1--3--|--5--------5--------|


                                                                   
----------------------|--------------------|----------------------|
----------------------|--------------------|----------------------|
----------------------|--------------------|----------------------|
--0----------0--1--3--|--5--------5--------|--1----------0--1--3--|


                                                                 
--------------------|----------------------|--------------------|
--------------------|----------------------|--------------------|
--------------------|----------------------|--------------------|
--5--------5--------|--0----------0--1--3--|--5--------5--------|


                                                                   
----------------------|--------------------|----------------------|
----------------------|--------------------|----------------------|
----------------------|--------------------|----------------------|
--1----------0--1--3--|--5--------5--------|--0----------0--1--3--|


                                                                 
--------------------|----------------------|--------------------|
--------------------|----------------------|--------------------|
--------------------|----------------------|--------------------|
--5--------5--------|--1----------0--1--3--|--5--------5--------|


                                                      
----------------------|------------------------------|
----------------------|------------------------------|
----------------------|------------------------------|
--0----------0--1--3--|--5--5-5-5-5-5--5--5-5-5-5-1--|


                                                              
------------------------------|------------------------------|
------------------------------|------------------------------|
------------------------------|------------------------------|
--1-1-1--1-1-1--1--1-1-1-1-1--|--5--5-5-5-5-5--5--5-5-5-5-0--|


                                                              
------------------------------|------------------------------|
------------------------------|------------------------------|
------------------------------|------------------------------|
--0-0-0--0-0-0--0--0-0-0-0-0--|--5--5-5-5-5-5--5--5-5-5-5-1--|


                                                              
------------------------------|------------------------------|
------------------------------|------------------------------|
------------------------------|------------------------------|
--1-1-1--1-1-1--1--1-1-1-1-1--|--5--5-5-5-5-5--5--5-5-5-5-0--|


                                                              
------------------------------|------------------------------|
------------------------------|------------------------------|
------------------------------|------------------------------|
--0-0-0--0-0-0--0--0-0-0-0-0--|--5--5-5-5-5-5--5--5-5-5-5-1--|


                                                              
------------------------------|------------------------------|
------------------------------|------------------------------|
------------------------------|------------------------------|
--1-1-1--1-1-1--1--1-1-1-1-1--|--5--5-5-5-5-5--5--5-5-5-5-0--|


                                                              
------------------------------|------------------------------|
------------------------------|------------------------------|
------------------------------|------------------------------|
--0-0-0--0-0-0--0--0-0-0-0-0--|--5--5-5-5-5-5--5--5-5-5-5-1--|


                                                              
------------------------------|------------------------------|
------------------------------|------------------------------|
------------------------------|------------------------------|
--1-1-1--1-1-1--1--1-1-1-1-1--|--5--5-5-5-5-5--5--5-5-5-5-0--|


                                                                                
------------------------------|------|------|------|------|------|------|------|
------------------------------|------|------|------|------|------|------|------|
------------------------------|------|------|------|------|------|------|------|
--0-0-0--0-0-0--0--0-0-0-0-0--|------|------|------|------|------|------|------|


                                                               
------|------|------|------|------|------|------|------|------|
------|------|------|------|------|------|------|------|------|
------|------|------|------|------|------|------|------|------|
------|------|------|------|------|------|------|------|------|


                                                                        
----------------------|-------------------------|----------------------|
----------------------|-------------------------|----------------------|
----------------------|-------------------------|----------------------|
--5----5----5----5----|--5----5----3--3-3-3--6--|--5----5----5----5----|


                                                                    
-------------------------|-------------------|--0--------5----4----|
-------------------------|--3----------------|---------------------|
----------------------2--|-------------------|---------------------|
--5----5----0--0-0-0-----|-------------------|---------------------|


                                                                        
----------------------|-------------------------|----------------------|
----------------------|-------------------------|----------------------|
----------------------|-------------------------|----------------------|
--5----5----5----5----|--5----5----3--3-3-3--6--|--5----5----5----5----|


                                                                           
-------------------------|-------------------|--0--------5----4----|------|
-------------------------|--3----------------|---------------------|------|
----------------------2--|-------------------|---------------------|------|
--5----5----0--0-0-0-----|-------------------|---------------------|------|
            
Tabs too difficult? Try these video lessons and learn fast.




comments powered by Disqus
↑ Back to top | Tablatures and chords are parodies/interpretations of the original songs. You may use it for private study, scholarship, research or language learning purposes only