» » »

Old Mans Child, My Evil Revelations Tabs (ver.1)

Artists:  A B C D E F G H I J K L M N O P Q R S T U V W X Y Z # 

My Evil Revelations Tabs (ver.1)

Old Mans Child Tabs
 Rating:
4/5 (5 votes)
My Evil Revelations lessons Tabs too difficult? Try these video lessons and learn fast
                4x

guitar 1
|E---------------------------------------------------------|
|B---------------------------------------------------------|
|G---------------------------------------------------------|
|D-----9---9-9---9---9-9---7---7/10------------------------|
|A-----7---7-7---7---7-7---5---5/8-------------------------|
|E-0-00--00----00--00----00--00----------------------------|
|
|guitar 2
|E---------------------------------------------------------|
|B---------------------------------------------------------|
|G---------------------------------------------------------|
|D-------------------------7-------------------------------|
|A-2-----------------------5-------------------------------|
|E-0-------------------------------------------------------|



guitar 1
|E---------------------------------------------------------|
|B---------------------------------------------------------|
|G---------------------------------------------------------|
|D-----9---9-9---9---9-9---4----4--------------------------|
|A-----7---7-7---7---7-7---2----2--------------------------|
|E-0-00--00----00--00----00--00----------------------------|
|
|guitar 2
|E---------------------------------------------------------|
|B---------------------------------------------------------|
|G---------------------------------------------------------|
|D-------------------------4-------------------------------|
|A-2-----------------------2-------------------------------|
|E-0-------------------------------------------------------|



2x

E----------------------------------------------------------|
B----------------------------------------------------------|
G----------------------------------------------------------|
D-----5----4-5---5---4-5---7---7/10------------------------|
A-----7----5-7---7---5-7---5---5/8-------------------------|
E-0-00---00----00--00----00--00----------------------------|



E----------------------------------------------------------|
B----------------------------------------------------------|
G----------------------------------------------------------|
D-----5----4-5---5---4-5---4---4/9-------------------------|
A-----7----5-7---7---5-7---2---2/7-------------------------|
E-0-00---00----00--00----00--00----------------------------|





verse

4x

E----------------------------------------------------------|
B----------------------------------------------------------|
G----------------------------------------------------------|
D---------------4-----4-8-----------------4------4---------|
A---------------2-22222-666---------------2-2----2---------|
E-000-00000-0000------------000-00000-0000---0000--3322----|



pre-chorus

4x

guitar 1
|E---------------------------------------------------------|
|B---------------------------------------------------------|
|G---------------------------------------------------------|
|D---------------------------------------------------------|
|A------5-7-9------7-9-10------9-10-12------10-12-14-------|
|E-0-00-------0-00--------0-00---------0-00----------------|
|
|guitar 2
|E---------------------------------------------------------|
|B---------------------------------------------------------|
|G---------------------------------------------------------|
|D---------------------------------------------------------|
|A---------------------------------------------------------|
|E-0-00-3-5-7--0-00-5-7-8--0-00-7-8-10--0-00-8-10-12-------|



|guitar 1
|E---------------------------------------------------------|
|B---------------------------------------------------------|
|G---------------------------------------------------------|
|D---------------------------------------------------------|
|A-----------12-10-9--------10-8-7--------9-7-6------------|
|E-10--10-10---------8--8-8--------7--7-7------------------|
|
|guitar 2
|E---------------------------------------------------------|
|B---------------------------------------------------------|
|G---------------------------------------------------------|
|D---------------------------------------------------------|
|A---------------------------------------------------------|
|E-10--10-10-10-8-7--8--8-8-8-6-5--7--7-7-7-5-4------------|



chorus

2x

E----------------------------------------------------------|
B----------------------------------------------------------|
G----------------------------------------------------------|
D-----5----4-5---5---4-5---7---7/10------------------------|
A-----7----5-7---7---5-7---5---5/8-------------------------|
E-0-00---00----00--00----00--00----------------------------|



E----------------------------------------------------------|
B----------------------------------------------------------|
G----------------------------------------------------------|
D-----5----4-5---5---4-5---4---4/9-------------------------|
A-----7----5-7---7---5-7---2---2/7-------------------------|
E-0-00---00----00--00----00--00----------------------------|



E----------------------------------------------------------|
B----------------------------------------------------------|
G----------------------------------------------------------|
D-5-------7----------12--11--------------------------------|
A-3-------5----------10--9---------------------------------|
E----------------------------------------------------------|



verse 4x again



repeat 4x and another 2x under next
verse

E----------------------------------------------------------|
B----------------------------------------------------------|
G----------------------------------------------------------|
D-9-9------5-----------------9-9-------4-------------------|
A-7-7------3-----------------7-7-------2-------------------|
E----------------------------------------------------------|



solo

I wrote the piano part out for a guitar, so you can transcribe the notes to
a keyboard.

2x

E-------------------------------------------------------------|
B-------------------------------------------------------------|
G-9-----9---9-7-5----5-7-9--7--5--5-7-9--7--9-----9-----------|
D---------------------------------------------------------9---|
A-------------------------------------------------------------|
E----------------------------------------------------7--------|



E-----------------------------------------------------------------|
B------------------------------------------------13-12-10--12-----|
G-12-11-9--11------12-11-9--11--9-----9---9-7-5----------------9--|
D--------------9--------------------------------------------------|
A-----------------------------------------------------------------|
E-----------------------------------------------------------------|



E-----------------------------------------------------------------|
B-13-12-10--12----------------------------------------------------|
G--------------9-----9---9---------12-11-9--11----12-11-9--11-----|
D------------------------------9----------------9-----------------|
A-----------------------------------------------------------------|
E--------------------------7--------------------------------------|


this is the guitar under the solo piano

E---------------------------------------------------------|
B---------------------------------------------------------|
G---------------------------------------------------------|
D-9--999-9-9-999-9\5-555-555-5-555555---------------------|
A-7--777-7-7-777-7\3-333-333-3-333333---------------------|
E---------------------------------------------------------|



E---------------------------------------------------------|
B---------------------------------------------------------|
G---------------------------------------------------------|
D-9-999-9-9-999--9\4-444-444-4-444444---------------------|
A-7-777-7-7-777--7\2-222-222-2-222222---------------------|
E---------------------------------------------------------|


then everything is repeated as before...
            
Submit corrections

comments powered by Disqus
↑ Back to top | Old Mans Child Tabs for My Evil Revelations. Lyrics for acoustic guitar and electric guitar. Tablatures and chords are parodies/interpretations of the original songs. You may use it for private study, scholarship, research or language learning purposes only