» » »

Old Mans Child, Into Silence Embrace Tabs (ver.1)

Artists:  A B C D E F G H I J K L M N O P Q R S T U V W X Y Z # 

Into Silence Embrace Tabs (ver.1)

Old Mans Child Tabs
Rating:
0/5 (0 votes)
Into Silence Embrace lessons Tabs too difficult? Try these video lessons and learn fast
                

Riff 1,
Guitar 1
e|-----------------------------------------------------------------|
B|-----------------------------------------------------------------|
G|-----------------------------------------------------------------|
D|-9-----------------------5---8---9-----------------------5---8---|
A|-7-----------------------3---6---7-----------------------3---6---|
E|-7-----------------------3---6---7-----------------------3---6---|
Guitar 2
e|-----------------------------------------------------------------|
B|-----------------------------------------------------------------|
G|-4444333344443333444433330000333344443333444433334444333300003333|
D|-----------------------------------------------------------------|
A|-----------------------------------------------------------------|
E|-----------------------------------------------------------------|

Riff 2, the second and fourth time there is some harmonic played at
the end
e|-----------------------------------------------------------------|
B|-----------------------------------------------------------------|
G|-----------------------------------------------------------------|
D|-----9---9-9---9---9-----10--1010----9---9-9---9---9-----10--1010|
A|-----7---7-7---7---7-----8---8-8-----7---7-7---7---7-----8---8-8-|
E|-7-777-777-7-7-7---7---7-8-888-8-7-777-777-7-7-7---7---7-8-888-8-|
pm . ..  ..    .         .   ..    . ..  ..    .         .   ..

Riff 3, last four times guitar 1 plays the second part while guitar 2
continues with riff 3
e|-----------------------------------------------------------------|
B|-----------------------------------------------------------------|
G|-----------------------------------------------------------------|
D|-----9---9-8-----9---9-8---8/118-----9---9-8-----9---9-8---8/118-|
A|-----7---7-6-----7---7-6---6/9\6-----7---7-6-----7---7-6---6/9\6-|
E|-0-0-7-0-7-6-0-0-7-0-7-6-0-6/9\6-0-0-7-0-7-6-0-0-7-0-7-6-0-6/9\6-|
pm . .   .     . .   .     .       . .   .     . .   .     .
second part:
e|-----------------------------------------------------------------|
B|-----------------------------------------------------------------|
G|-----------------------------------------------------------------|
D|-9-------------------------8/118-9-------------------------8/118-|
A|-7-------------------------6/9\6-7-------------------------6/9\6-|
E|-7-------------------------6/9\6-7-------------------------6/9\6-|

Riff 2

Riff 4, tremolo picking
e|-----------------------------------------------------------------|
B|-----------------------------------------------------------------|
G|-----------------------------------------------------------------|
D|-9---4-5-7-10----9---4-5-7-8-----9---4-5-7-10----9---4-5-7-8-----|
A|-7---2-3-5-8-----7---2-3-5-6-----7---2-3-5-8-----7---2-3-5-6-----|
E|-7---2-3-5-8-----7---2-3-5-6-----7---2-3-5-8-----7---2-3-5-6-----|

Riff 5,
e|-----------------------------------------------------------------|
B|-----------------------------------------------------------------|
G|-----------------------------------------------------------6-----|
D|-7-------5-8-----7-------5-6-----7-------5-8-----7-------5---6---|
A|-----7-8-------------7-8-------------7-8-------------7-8---------|
E|-----------------------------------------------------------------|

Riff 4

Riff 5

Riff 6,
e|-------------------------------------------------|
B|-------------------------------------------------|
G|-------------------------------------------------|
D|-------7-----8-----------------7-----8-----------|
A|-------------------------------------------------|
E|-5---------------9-8-7-6-5---------------9-8-7-6-|

Riff 7,
e|-------------------------------------------------|
B|-------------------------------------------------|
G|-------------------------------------------------|
D|-------4-----5-----------------------------------|
A|-------------------------------------------------|
E|-2---------------6-5-4-3-2-----3~--------6-5-4-3-|

e|-------------------------------------------------|
B|-------------------------------------------------|
G|-------------------------------------------------|
D|-------4-----5-----------------------------------|
A|-------------------------------------------------|
E|-2---------------6-5-4-3-1-----4~--------6-5-4-3-|

Riff 1

Riff 8
e|-------------------------------------------------|
B|-------------------------------------------------|
G|-------------------------------------------------|
D|-7---7-6---6-7---7-7-9-107---7-6---6-7---7-3---3-|
A|-7---7-6---6-7---7-7-9-107---7-6---6-7---7-3---3-|
E|-5---5-4---4-5---5-5-7-8-5---5-4---4-5---5-1---1-|

e|-------------------------------------------------|
B|-------------------------------------------------|
G|-------------------------------------------------|
D|-7---7-6---6-7---7-7-9-107---7-6---6-7---7-8---8-|
A|-7---7-6---6-7---7-7-9-107---7-6---6-7---7-6---6-|
E|-5---5-4---4-5---5-5-7-8-5---5-4---4-5---5-6---6-|

Riff 9
e|-------------------------------------------------|
B|-------------------------------------------------|
G|-------------------------------------------------|
D|-9---9-8---8-9---9-9-11129---9-8---8-9---9-5---5-|
A|-7---7-6---6-7---7-7-9-107---7-6---6-7---7-3---3-|
E|-7---7-6---6-7---7-7-9-107---7-6---6-7---7-3---3-|

e|-------------------------------------------------|
B|-------------------------------------------------|
G|-------------------------------------------------|
D|-9---9-8---8-9---9-9-11129---9-8---8-9---9-6---6-|
A|-7---7-6---6-7---7-7-9-107---7-6---6-7---7-6---6-|
E|-7---7-6---6-7---7-7-9-107---7-6---6-7---7-4---4-|

Riff 8

Riff 9

Riff 8

Riff 9

Riff 8

Riff 9

Riff 8

Riff 10
e|-----------------|
B|-----------------|
G|-----------------|
D|-9-----8-9-------|
A|-7-----6-7-------|
E|-7-----6-7-------|

Riff 3

Ending
e|-----------------|
B|-----------------|
G|-----------------|
D|-9\--------------|
A|-7\--------------|
E|-7\--------------|
            

comments powered by Disqus
↑ Back to top | Old Mans Child Tabs for Into Silence Embrace. Lyrics for acoustic guitar and electric guitar. Tablatures and chords are parodies/interpretations of the original songs. You may use it for private study, scholarship, research or language learning purposes only