>
 >
God Of Impiety

God Of Impiety Guitar Tabs

Old Mans Child - God Of Impiety chords, tabs, tablatures, lyrics

Guitar lessons | Add/correct | Request | Top 50 tabs Artists:  A B C D E F G H I J K L M N O P Q R S T U V W X Y Z 0-9

God Of Impiety Guitar Tabs – Old Mans Child

CD, Sheet music, Poster

Do you like God Of Impiety? Share with your friends now
Tabs
Old Man's Child
God of impiety/Ill natured spirit invasion
Guitar1
                                                
E||--------------------------------------------|
B||--------------------------------------------|
G||--------------------------------------------|
D||------9-9-----10-10-------12-12-------13-13-|
A||--7-7-----8-8-------10-10-------11-11-------|
E||--------------------------------------------|


                                                 
------------------------------------------------|
------------------------------------------------|
------------------------------------------------|
--------14-14-12-12-14-14-10-10-14-14-9-9-14-14-|
--12-12-----------------------------------------|
------------------------------------------------|


                                                 
------------------------------------------------|
------------------------------------------------|
------------------------------------------------|
--------14-14-12-12-14-14-10-10-14-14-9-9-14-14-|
--12-12-----------------------------------------|
------------------------------------------------|


                                                 
------------------------------------------------|
------------------------------------------------|
------------------------------------------------|
--0-0-15-15-14-14-15-15-12-12-15-15-10-10-15-15-|
------------------------------------------------|
------------------------------------------------|


                                                 
------------------------------------------------|
------------------------------------------------|
------------------------------------------------|
--0-0-15-15-14-14-15-15-12-12-14-14-------14-14-|
------------------------------------11-11-------|
------------------------------------------------|


                                                 
------------------------------------------------|
------------------------------------------------|
------------------------------------------------|
--------14-14-12-12-14-14-10-10-14-14-9-9-14-14-|
--12-12-----------------------------------------|
------------------------------------------------|


                                                 
------------------------------------------------|
------------------------------------------------|
------------------------------------------------|
--------14-14-12-12-14-14-10-10-14-14-9-9-14-14-|
--12-12-----------------------------------------|
------------------------------------------------|


                                                 
------------------------------------------------|
------------------------------------------------|
------------------------------------------------|
--0-0-15-15-14-14-15-15-12-12-15-15-10-10-15-15-|
------------------------------------------------|
------------------------------------------------|


                                                 
------------------------------------------------|
------------------------------------------------|
------------------------------------------------|
--0-0-15-15-14-14-15-15-12-12-14-14-------14-14-|
------------------------------------11-11-------|
------------------------------------------------|


                                                 
------------------------------------------------|
------------------------------------------------|
------------------------------------------------|
--------14-14-12-12-14-14-10-10-14-14-9-9-14-14-|
--12-12-----------------------------------------|
------------------------------------------------|


                                                 
------------------------------------------------|
------------------------------------------------|
------------------------------------------------|
--------14-14-12-12-14-14-10-10-14-14-9-9-14-14-|
--12-12-----------------------------------------|
------------------------------------------------|


                                                 
------------------------------------------------|
------------------------------------------------|
------------------------------------------------|
--0-0-15-15-14-14-15-15-12-12-15-15-10-10-15-15-|
------------------------------------------------|
------------------------------------------------|


                                                 
------------------------------------------------|
------------------------------------------------|
------------------------------------------------|
--0-0-15-15-14-14-15-15-12-12-14-14-------14-14-|
------------------------------------11-11-------|
------------------------------------------------|


                                                 
------------------------------------------------|
------------------------------------------------|
------------------------------------------------|
--------14-14-12-12-14-14-10-10-14-14-9-9-14-14-|
--12-12-----------------------------------------|
------------------------------------------------|


                                                 
------------------------------------------------|
------------------------------------------------|
------------------------------------------------|
--------14-14-12-12-14-14-10-10-14-14-9-9-14-14-|
--12-12-----------------------------------------|
------------------------------------------------|


                                                 
------------------------------------------------|
------------------------------------------------|
------------------------------------------------|
--0-0-15-15-14-14-15-15-12-12-15-15-10-10-15-15-|
------------------------------------------------|
------------------------------------------------|


                                                 
------------------------------------------------|
------------------------------------------------|
------------------------------------------------|
--0-0-15-15-14-14-15-15-12-12-14-14-------14-14-|
------------------------------------11-11-------|
------------------------------------------------|


                                                                        
----------------------------------|------------------------------------|
----------------------------------|------------------------------------|
----------------------------------|------------------------------------|
------9-9-7-7-9-9-5-5-9-9-4-4-9-9-|------9-9-7-7-9-9-5-5-9-9-7-7-10-10-|
--7-7-----------------------------|--7-7-------------------------------|
----------------------------------|------------------------------------|


                                                                          
----------------------------------|--------------------------------------|
----------------------------------|--------------------------------------|
----------------------------------|--------------------------------------|
------9-9-7-7-9-9-5-5-9-9-4-4-9-9-|------10-10-9-9-7-7-------------------|
--7-7-----------------------------|--6-6---------------10-10-9-9-7-7-6-6-|
----------------------------------|--------------------------------------|


                                                                        
----------------------------------|------------------------------------|
----------------------------------|------------------------------------|
----------------------------------|------------------------------------|
------9-9-7-7-9-9-5-5-9-9-4-4-9-9-|------9-9-7-7-9-9-5-5-9-9-7-7-10-10-|
--7-7-----------------------------|--7-7-------------------------------|
----------------------------------|------------------------------------|


                                                                          
----------------------------------|--------------------------------------|
----------------------------------|--------------------------------------|
----------------------------------|--------------------------------------|
------9-9-7-7-9-9-5-5-9-9-4-4-9-9-|------10-10-9-9-7-7-------------------|
--7-7-----------------------------|--6-6---------------10-10-9-9-7-7-6-6-|
----------------------------------|--------------------------------------|


                                                 
------------------------------------------------|
------------------------------------------------|
------------------------------------------------|
--------14-14-12-12-14-14-10-10-14-14-9-9-14-14-|
--12-12-----------------------------------------|
------------------------------------------------|


                                                 
------------------------------------------------|
------------------------------------------------|
------------------------------------------------|
--------14-14-12-12-14-14-10-10-14-14-9-9-14-14-|
--12-12-----------------------------------------|
------------------------------------------------|


                                                 
------------------------------------------------|
------------------------------------------------|
------------------------------------------------|
--0-0-15-15-14-14-15-15-12-12-15-15-10-10-15-15-|
------------------------------------------------|
------------------------------------------------|


                                                 
------------------------------------------------|
------------------------------------------------|
------------------------------------------------|
--0-0-15-15-14-14-15-15-12-12-14-14-------14-14-|
------------------------------------11-11-------|
------------------------------------------------|


                                                 
------------------------------------------------|
------------------------------------------------|
------------------------------------------------|
--------14-14-12-12-14-14-10-10-14-14-9-9-14-14-|
--12-12-----------------------------------------|
------------------------------------------------|


                                                 
------------------------------------------------|
------------------------------------------------|
------------------------------------------------|
--------14-14-12-12-14-14-10-10-14-14-9-9-14-14-|
--12-12-----------------------------------------|
------------------------------------------------|


                                                 
------------------------------------------------|
------------------------------------------------|
------------------------------------------------|
--0-0-15-15-14-14-15-15-12-12-15-15-10-10-15-15-|
------------------------------------------------|
------------------------------------------------|


                                                 
------------------------------------------------|
------------------------------------------------|
------------------------------------------------|
--0-0-15-15-14-14-15-15-12-12-14-14-------14-14-|
------------------------------------11-11-------|
------------------------------------------------|


                                                 
------------------------------------------------|
------------------------------------------------|
------------------------------------------------|
--------14-14-12-12-14-14-10-10-14-14-9-9-14-14-|
--12-12-----------------------------------------|
------------------------------------------------|


                                                 
------------------------------------------------|
------------------------------------------------|
------------------------------------------------|
--------14-14-12-12-14-14-10-10-14-14-9-9-14-14-|
--12-12-----------------------------------------|
------------------------------------------------|


                                                 
------------------------------------------------|
------------------------------------------------|
------------------------------------------------|
--0-0-15-15-14-14-15-15-12-12-15-15-10-10-15-15-|
------------------------------------------------|
------------------------------------------------|


                                                 
------------------------------------------------|
------------------------------------------------|
------------------------------------------------|
--0-0-15-15-14-14-15-15-12-12-14-14-------14-14-|
------------------------------------11-11-------|
------------------------------------------------|


                                                 
------------------------------------------------|
------------------------------------------------|
------------------------------------------------|
--------14-14-12-12-14-14-10-10-14-14-9-9-14-14-|
--12-12-----------------------------------------|
------------------------------------------------|


                                                 
------------------------------------------------|
------------------------------------------------|
------------------------------------------------|
--------14-14-12-12-14-14-10-10-14-14-9-9-14-14-|
--12-12-----------------------------------------|
------------------------------------------------|


                                                 
------------------------------------------------|
------------------------------------------------|
------------------------------------------------|
--0-0-15-15-14-14-15-15-12-12-15-15-10-10-15-15-|
------------------------------------------------|
------------------------------------------------|


                                                                                
--------------------------------------------|----------------------------------|
--------------------------------------------|----------------------------------|
--------------------------------------------|----------------------------------|
--12-12-14-14-10-10-12-12-9-9-10-10-9-9-6-6-|------9-9-7-7-9-9-5-5-9-9-4-4-9-9-|
--------------------------------------------|--7-7-----------------------------|
--------------------------------------------|----------------------------------|


                                                                        
------------------------------------|----------------------------------|
------------------------------------|----------------------------------|
------------------------------------|----------------------------------|
------9-9-7-7-9-9-5-5-9-9-7-7-10-10-|------9-9-7-7-9-9-5-5-9-9-4-4-9-9-|
--7-7-------------------------------|--7-7-----------------------------|
------------------------------------|----------------------------------|


                                                                          
--------------------------------------|----------------------------------|
--------------------------------------|----------------------------------|
--------------------------------------|----------------------------------|
------10-10-9-9-7-7-------------------|------9-9-7-7-9-9-5-5-9-9-4-4-9-9-|
--6-6---------------10-10-9-9-7-7-6-6-|--7-7-----------------------------|
--------------------------------------|----------------------------------|


                                                                        
------------------------------------|----------------------------------|
------------------------------------|----------------------------------|
------------------------------------|----------------------------------|
------9-9-7-7-9-9-5-5-9-9-7-7-10-10-|------9-9-7-7-9-9-5-5-9-9-4-4-9-9-|
--7-7-------------------------------|--7-7-----------------------------|
------------------------------------|----------------------------------|


                                                                        
--------------------------------------|--------------------------------|
--------------------------------------|--------------------------------|
--------------------------------------|--------------------------------|
------10-10-9-9-7-7-------------------|--------------------------------|
--6-6---------------10-10-9-9-7-7-6-6-|--7---------10-10-10--9-9-9--7--|
--------------------------------------|-----0-0-0----------------------|


                                                               
-----------------------------|--------------------------------|
-----------------------------|--------------------------------|
-----------------------------|--------------------------------|
-----------------------------|--------------------------------|
--6---------6-6-6--9-9-9--6--|--7---------10-10-10--9-9-9--7--|
-----7-7-7-------------------|-----0-0-0----------------------|


                                                              
----------------------------|--------------------------------|
----------------------------|--------------------------------|
----------------------------|--------------------------------|
----------------------------|--------------------------------|
--6---------6--9---------9--|--7---------10-10-10--9-9-9--7--|
-----7-7-7--------7-7-7-----|-----0-0-0----------------------|


                                                               
-----------------------------|--------------------------------|
-----------------------------|--------------------------------|
-----------------------------|--------------------------------|
-----------------------------|--------------------------------|
--6---------6-6-6--9-9-9--6--|--7---------10-10-10--9-9-9--7--|
-----7-7-7-------------------|-----0-0-0----------------------|


                                                              
----------------------------|--------------------------------|
----------------------------|--------------------------------|
----------------------------|--------------------------------|
----------------------------|--------------------------------|
--6---------6--9---------9--|--7---------10-10-10--9-9-9--7--|
-----7-7-7--------7-7-7-----|-----0-0-0----------------------|


                                                               
-----------------------------|--------------------------------|
-----------------------------|--------------------------------|
-----------------------------|--------------------------------|
-----------------------------|--------------------------------|
--6---------6-6-6--9-9-9--6--|--7---------10-10-10--9-9-9--7--|
-----7-7-7-------------------|-----0-0-0----------------------|


                                                              
----------------------------|--------------------------------|
----------------------------|--------------------------------|
----------------------------|--------------------------------|
----------------------------|--------------------------------|
--6---------6--9---------9--|--7---------10-10-10--9-9-9--7--|
-----7-7-7--------7-7-7-----|-----0-0-0----------------------|


                                                               
-----------------------------|--------------------------------|
-----------------------------|--------------------------------|
-----------------------------|--------------------------------|
-----------------------------|--------------------------------|
--6---------6-6-6--9-9-9--6--|--7---------10-10-10--9-9-9--7--|
-----7-7-7-------------------|-----0-0-0----------------------|


                                                                              
----------------------------|----------------------|-------------------------|
----------------------------|----------------------|-------------------------|
----------------------------|----------------------|-------------------------|
----------------------------|-------2---------5----|-------7----------10--9--|
--6---------6--9---------9--|--2----2----5----5----|--7----7----10----10--9--|
-----7-7-7--------7-7-7-----|--0---------3---------|--5---------8-----8---7--|


                                                                     
----------------------|----------------------|----------------------|
----------------------|----------------------|----------------------|
----------------------|----------------------|----------------------|
-------2---------5----|-------7---------9----|-------2---------5----|
--2----2----5----5----|--7----7----9----9----|--2----2----5----5----|
--0---------3---------|--5---------7---------|--0---------3---------|


                                                                        
-------------------------|----------------------|----------------------|
-------------------------|----------------------|----------------------|
-------------------------|----------------------|----------------------|
-------7----------10--9--|-------2---------5----|-------7---------9----|
--7----7----10----10--9--|--2----2----5----5----|--7----7----9----9----|
--5---------8-----8---7--|--0---------3---------|--5---------7---------|


                                                                        
----------------------|-------------------------|----------------------|
----------------------|-------------------------|----------------------|
----------------------|-------------------------|----------------------|
-------2---------5----|-------7----------10--9--|-------2---------5----|
--2----2----5----5----|--7----7----10----10--9--|--2----2----5----5----|
--0---------3---------|--5---------8-----8---7--|--0---------3---------|


                                                                        
----------------------|----------------------|-------------------------|
----------------------|----------------------|-------------------------|
----------------------|----------------------|-------------------------|
-------7---------9----|-------2---------5----|-------7----------10--9--|
--7----7----9----9----|--2----2----5----5----|--7----7----10----10--9--|
--5---------7---------|--0---------3---------|--5---------8-----8---7--|


                                              
----------------------|----------------------|
----------------------|----------------------|
----------------------|----------------------|
-------2---------5----|-------7---------9----|
--2----2----5----5----|--7----7----9----9----|
--0---------3---------|--5---------7---------|


                                             
--------------------------------------------|
--------------------------------------------|
--------------------------------------------|
------9-9-----10-10-------12-12-------13-13-|
--7-7-----8-8-------10-10-------11-11-------|
--------------------------------------------|


                                                 
------------------------------------------------|
------------------------------------------------|
------------------------------------------------|
--------14-14-12-12-14-14-10-10-14-14-9-9-14-14-|
--12-12-----------------------------------------|
------------------------------------------------|


                                                 
------------------------------------------------|
------------------------------------------------|
------------------------------------------------|
--------14-14-12-12-14-14-10-10-14-14-9-9-14-14-|
--12-12-----------------------------------------|
------------------------------------------------|


                                                 
------------------------------------------------|
------------------------------------------------|
------------------------------------------------|
--0-0-15-15-14-14-15-15-12-12-15-15-10-10-15-15-|
------------------------------------------------|
------------------------------------------------|


                                                 
------------------------------------------------|
------------------------------------------------|
------------------------------------------------|
--0-0-15-15-14-14-15-15-12-12-14-14-------14-14-|
------------------------------------11-11-------|
------------------------------------------------|


                                                 
------------------------------------------------|
------------------------------------------------|
------------------------------------------------|
--------14-14-12-12-14-14-10-10-14-14-9-9-14-14-|
--12-12-----------------------------------------|
------------------------------------------------|


                                                 
------------------------------------------------|
------------------------------------------------|
------------------------------------------------|
--------14-14-12-12-14-14-10-10-14-14-9-9-14-14-|
--12-12-----------------------------------------|
------------------------------------------------|


                                                 
------------------------------------------------|
------------------------------------------------|
------------------------------------------------|
--0-0-15-15-14-14-15-15-12-12-15-15-10-10-15-15-|
------------------------------------------------|
------------------------------------------------|


                                                 
------------------------------------------------|
------------------------------------------------|
------------------------------------------------|
--0-0-15-15-14-14-15-15-12-12-14-14-------14-14-|
------------------------------------11-11-------|
------------------------------------------------|


                                                 
------------------------------------------------|
------------------------------------------------|
------------------------------------------------|
--------14-14-12-12-14-14-10-10-14-14-9-9-14-14-|
--12-12-----------------------------------------|
------------------------------------------------|


                                                 
------------------------------------------------|
------------------------------------------------|
------------------------------------------------|
--------14-14-12-12-14-14-10-10-14-14-9-9-14-14-|
--12-12-----------------------------------------|
------------------------------------------------|


                                                 
------------------------------------------------|
------------------------------------------------|
------------------------------------------------|
--0-0-15-15-14-14-15-15-12-12-15-15-10-10-15-15-|
------------------------------------------------|
------------------------------------------------|


                                                 
------------------------------------------------|
------------------------------------------------|
------------------------------------------------|
--0-0-15-15-14-14-15-15-12-12-14-14-------14-14-|
------------------------------------11-11-------|
------------------------------------------------|


                                                 
------------------------------------------------|
------------------------------------------------|
------------------------------------------------|
--------14-14-12-12-14-14-10-10-14-14-9-9-14-14-|
--12-12-----------------------------------------|
------------------------------------------------|


                                                 
------------------------------------------------|
------------------------------------------------|
------------------------------------------------|
--------14-14-12-12-14-14-10-10-14-14-9-9-14-14-|
--12-12-----------------------------------------|
------------------------------------------------|


                                                 
------------------------------------------------|
------------------------------------------------|
------------------------------------------------|
--0-0-15-15-14-14-15-15-12-12-15-15-10-10-15-15-|
------------------------------------------------|
------------------------------------------------|


                                                                                
--------------------------------------------|----------------------------------|
--------------------------------------------|----------------------------------|
--------------------------------------------|----------------------------------|
--12-12-14-14-10-10-12-12-9-9-10-10-9-9-6-6-|------9-9-7-7-9-9-5-5-9-9-4-4-9-9-|
--------------------------------------------|--7-7-----------------------------|
--------------------------------------------|----------------------------------|


                                                                        
------------------------------------|----------------------------------|
------------------------------------|----------------------------------|
------------------------------------|----------------------------------|
------9-9-7-7-9-9-5-5-9-9-7-7-10-10-|------9-9-7-7-9-9-5-5-9-9-4-4-9-9-|
--7-7-------------------------------|--7-7-----------------------------|
------------------------------------|----------------------------------|


                                                                          
--------------------------------------|----------------------------------|
--------------------------------------|----------------------------------|
--------------------------------------|----------------------------------|
------10-10-9-9-7-7-------------------|------9-9-7-7-9-9-5-5-9-9-4-4-9-9-|
--6-6---------------10-10-9-9-7-7-6-6-|--7-7-----------------------------|
--------------------------------------|----------------------------------|


                                                                        
------------------------------------|----------------------------------|
------------------------------------|----------------------------------|
------------------------------------|----------------------------------|
------9-9-7-7-9-9-5-5-9-9-7-7-10-10-|------9-9-7-7-9-9-5-5-9-9-4-4-9-9-|
--7-7-------------------------------|--7-7-----------------------------|
------------------------------------|----------------------------------|


                                                                   
--------------------------------------|---|---|---|---|---|---|---|
--------------------------------------|---|---|---|---|---|---|---|
--------------------------------------|---|---|---|---|---|---|---|
------10-10-9-9-7-7-------------------|---|---|---|---|---|---|---|
--6-6---------------10-10-9-9-7-7-6-6-|---|---|---|---|---|---|---|
--------------------------------------|---|---|---|---|---|---|---|


                                                              
------------------------------|------------------------------|
------------------------------|------------------------------|
----------------8----8--8--8--|--9----9--9--9--9----9--9--9--|
--9----9--9--9--8----8--8--8--|--9----9--9--9--9----9--9--9--|
--9----9--9--9--6----6--6--6--|--7----7--7--7--7----7--7--7--|
--7----7--7--7----------------|------------------------------|


                                                              
------------------------------|------------------------------|
------------------------------|------------------------------|
------------------------------|--9----9--9--9--9----9--9--9--|
--9----9--9--9--9----9--9--9--|--9----9--9--9--9----9--9--9--|
--9----9--9--9--9----9--9--9--|--7----7--7--7--7----7--7--7--|
--7----7--7--7--7----7--7--7--|------------------------------|


                                                              
------------------------------|------------------------------|
------------------------------|------------------------------|
----------------8----8--8--8--|--9----9--9--9--9----9--9--9--|
--9----9--9--9--8----8--8--8--|--9----9--9--9--9----9--9--9--|
--9----9--9--9--6----6--6--6--|--7----7--7--7--7----7--7--7--|
--7----7--7--7----------------|------------------------------|


                                                              
------------------------------|------------------------------|
------------------------------|------------------------------|
------------------------------|--9----9--9--9--9----9--9--9--|
--9----9--9--9--9----9--9--9--|--9----9--9--9--9----9--9--9--|
--9----9--9--9--9----9--9--9--|--7----7--7--7--7----7--7--7--|
--7----7--7--7--7----7--7--7--|------------------------------|


                                                              
------------------------------|------------------------------|
------------------------------|------------------------------|
----------------8----8--8--8--|--9----9--9--9--9----9--9--9--|
--9----9--9--9--8----8--8--8--|--9----9--9--9--9----9--9--9--|
--9----9--9--9--6----6--6--6--|--7----7--7--7--7----7--7--7--|
--7----7--7--7----------------|------------------------------|


                                                              
------------------------------|------------------------------|
------------------------------|------------------------------|
------------------------------|--9----9--9--9--9----9--9--9--|
--9----9--9--9--9----9--9--9--|--9----9--9--9--9----9--9--9--|
--9----9--9--9--9----9--9--9--|--7----7--7--7--7----7--7--7--|
--7----7--7--7--7----7--7--7--|------------------------------|


                                                              
------------------------------|------------------------------|
------------------------------|------------------------------|
----------------8----8--8--8--|--9----9--9--9--9----9--9--9--|
--9----9--9--9--8----8--8--8--|--9----9--9--9--9----9--9--9--|
--9----9--9--9--6----6--6--6--|--7----7--7--7--7----7--7--7--|
--7----7--7--7----------------|------------------------------|


                                                              
------------------------------|------------------------------|
------------------------------|------------------------------|
------------------------------|--9----9--9--9--9----9--9--9--|
--9----9--9--9--9----9--9--9--|--9----9--9--9--9----9--9--9--|
--9----9--9--9--9----9--9--9--|--7----7--7--7--7----7--7--7--|
--7----7--7--7--7----7--7--7--|------------------------------|


                                                         
---------------------------|----------------------------|
---------------------------|----------------------------|
----------------8---8---8--|----------------------------|
--9----9--9--9--8---8---8--|----------------------------|
--9----9--9--9--6---6---6--|-------------------8--5-----|
--7----7--7--7-------------|--0--0-0-0--0-0-0--------6--|


                                                          
----------------------------|----------------------------|
----------------------------|----------------------------|
----------------------------|----------------------------|
-------------------5--------|----------------------------|
--7-------------------7--5--|--8----------------8--5-----|
-----0-0-0--0-0-0-----------|-----0-0-0--0-0-0--------6--|


                                                          
----------------------------|----------------------------|
----------------------------|----------------------------|
----------------------------|----------------------------|
----------------------------|----------------------------|
----------7------------8----|-------------------8--5-----|
--5-5-5-5-5----6-6-6-6-6----|--0--0-0-0--0-0-0--------6--|


                                                          
----------------------------|----------------------------|
----------------------------|----------------------------|
----------------------------|----------------------------|
-------------------5--------|----------------------------|
--7-------------------7--5--|--8----------------8--5-----|
-----0-0-0--0-0-0-----------|-----0-0-0--0-0-0--------6--|


                                                          
----------------------------|----------------------------|
----------------------------|----------------------------|
----------------------------|----------------------------|
----------------------------|----------------------------|
----------7------------6----|-------------------8--5-----|
--5-5-5-5-5----4-4-4-4-4----|--0--0-0-0--0-0-0--------6--|


                                                          
----------------------------|----------------------------|
----------------------------|----------------------------|
----------------------------|----------------------------|
-------------------5--------|----------------------------|
--7-------------------7--5--|--8----------------8--5-----|
-----0-0-0--0-0-0-----------|-----0-0-0--0-0-0--------6--|


                                                          
----------------------------|----------------------------|
----------------------------|----------------------------|
----------------------------|----------------------------|
----------------------------|----------------------------|
----------7------------8----|-------------------8--5-----|
--5-5-5-5-5----6-6-6-6-6----|--0--0-0-0--0-0-0--------6--|


                                                          
----------------------------|----------------------------|
----------------------------|----------------------------|
----------------------------|----------------------------|
-------------------5--------|----------------------------|
--7-------------------7--5--|--8----------------8--5-----|
-----0-0-0--0-0-0-----------|-----0-0-0--0-0-0--------6--|


                                                              
----------------------------|--------------------------------|
----------------------------|--------------------------------|
----------------------------|--------------------------------|
----------------------------|--------------------------------|
----------7------------6----|--7---------10-10-10--9-9-9--7--|
--5-5-5-5-5----4-4-4-4-4----|-----0-0-0----------------------|


                                                               
-----------------------------|--------------------------------|
-----------------------------|--------------------------------|
-----------------------------|--------------------------------|
-----------------------------|--------------------------------|
--6---------6-6-6--9-9-9--6--|--7---------10-10-10--9-9-9--7--|
-----7-7-7-------------------|-----0-0-0----------------------|


                                                              
----------------------------|--------------------------------|
----------------------------|--------------------------------|
----------------------------|--------------------------------|
----------------------------|--------------------------------|
--6---------6--9---------9--|--7---------10-10-10--9-9-9--7--|
-----7-7-7--------7-7-7-----|-----0-0-0----------------------|


                                                               
-----------------------------|--------------------------------|
-----------------------------|--------------------------------|
-----------------------------|--------------------------------|
-----------------------------|--------------------------------|
--6---------6-6-6--9-9-9--6--|--7---------10-10-10--9-9-9--7--|
-----7-7-7-------------------|-----0-0-0----------------------|


                                                              
----------------------------|--------------------------------|
----------------------------|--------------------------------|
----------------------------|--------------------------------|
----------------------------|--------------------------------|
--6---------6--9---------9--|--7---------10-10-10--9-9-9--7--|
-----7-7-7--------7-7-7-----|-----0-0-0----------------------|


                                                               
-----------------------------|--------------------------------|
-----------------------------|--------------------------------|
-----------------------------|--------------------------------|
-----------------------------|--------------------------------|
--6---------6-6-6--9-9-9--6--|--7---------10-10-10--9-9-9--7--|
-----7-7-7-------------------|-----0-0-0----------------------|


                                                              
----------------------------|--------------------------------|
----------------------------|--------------------------------|
----------------------------|--------------------------------|
----------------------------|--------------------------------|
--6---------6--9---------9--|--7---------10-10-10--9-9-9--7--|
-----7-7-7--------7-7-7-----|-----0-0-0----------------------|


                                                               
-----------------------------|--------------------------------|
-----------------------------|--------------------------------|
-----------------------------|--------------------------------|
-----------------------------|--------------------------------|
--6---------6-6-6--9-9-9--6--|--7---------10-10-10--9-9-9--7--|
-----7-7-7-------------------|-----0-0-0----------------------|


                                                                              
----------------------------|----------------------|-------------------------|
----------------------------|----------------------|-------------------------|
----------------------------|----------------------|-------------------------|
----------------------------|-------2---------5----|-------7----------10--9--|
--6---------6--9---------9--|--2----2----5----5----|--7----7----10----10--9--|
-----7-7-7--------7-7-7-----|--0---------3---------|--5---------8-----8---7--|


                                                                     
----------------------|----------------------|----------------------|
----------------------|----------------------|----------------------|
----------------------|----------------------|----------------------|
-------2---------5----|-------7---------9----|-------2---------5----|
--2----2----5----5----|--7----7----9----9----|--2----2----5----5----|
--0---------3---------|--5---------7---------|--0---------3---------|


                                                                        
-------------------------|----------------------|----------------------|
-------------------------|----------------------|----------------------|
-------------------------|----------------------|----------------------|
-------7----------10--9--|-------2---------5----|-------7---------9----|
--7----7----10----10--9--|--2----2----5----5----|--7----7----9----9----|
--5---------8-----8---7--|--0---------3---------|--5---------7---------|


                                                                        
----------------------|-------------------------|----------------------|
----------------------|-------------------------|----------------------|
----------------------|-------------------------|----------------------|
-------2---------5----|-------7----------10--9--|-------2---------5----|
--2----2----5----5----|--7----7----10----10--9--|--2----2----5----5----|
--0---------3---------|--5---------8-----8---7--|--0---------3---------|


                                                                        
----------------------|----------------------|-------------------------|
----------------------|----------------------|-------------------------|
----------------------|----------------------|-------------------------|
-------7---------9----|-------2---------5----|-------7----------10--9--|
--7----7----9----9----|--2----2----5----5----|--7----7----10----10--9--|
--5---------7---------|--0---------3---------|--5---------8-----8---7--|


                                                                     
----------------------|----------------------|----------------------|
----------------------|----------------------|----------------------|
----------------------|----------------------|----------------------|
-------2---------5----|-------7---------9----|-------2---------5----|
--2----2----5----5----|--7----7----9----9----|--2----2----5----5----|
--0---------3---------|--5---------7---------|--0---------3---------|


                                                                        
-------------------------|----------------------|----------------------|
-------------------------|----------------------|----------------------|
-------------------------|----------------------|----------------------|
-------7----------10--9--|-------2---------5----|-------7---------9----|
--7----7----10----10--9--|--2----2----5----5----|--7----7----9----9----|
--5---------8-----8---7--|--0---------3---------|--5---------7---------|


                                                                        
----------------------|-------------------------|----------------------|
----------------------|-------------------------|----------------------|
----------------------|-------------------------|----------------------|
-------2---------5----|-------7----------10--9--|-------2---------5----|
--2----2----5----5----|--7----7----10----10--9--|--2----2----5----5----|
--0---------3---------|--5---------8-----8---7--|--0---------3---------|


                                                                    
----------------------|--------------------------------------------|
----------------------|--------------------------------------------|
----------------------|--------------------------------------------|
-------7---------9----|------9-9-----10-10-------12-12-------13-13-|
--7----7----9----9----|--7-7-----8-8-------10-10-------11-11-------|
--5---------7---------|--------------------------------------------|


                                                                       
------------------------------------------------|--------------------||
------12-12-------13-13-------15-15-------16-16-|--17~---------------||
--9-9-------10-10-------12-12-------13-13-------|--------------------||
------------------------------------------------|--------------------||
------------------------------------------------|--------------------||
------------------------------------------------|--------------------||





Comments


Popular Old Mans Child tabs & chords
Captives Of Humanity Bass Tabs
Fall Of Man 1 Bass Tabs
Felonies Of The Christian Art Bass Tabs
Behind The Mask Tabs
Captives Of Humanity Tabs
Demonical Possession Tabs
Doommaker Tabs
In Black Endless Void Tabs
Passage To Pandemonium Tabs
Phantoms Of Mortem Tales Tabs


Song lyrics



↑ Back to top | Tablatures and chords are parodies/interpretations of the original songs. You may use it for private study, scholarship, research or language learning purposes only
© 2014 AZChords.com Contact us | Privacy policy | DMCA | Add/correct tabs | Request tabs | Top 50 tabs