» » »

Old Mans Child, Funeral, Swords, And Souls Tabs (ver.2)

Artists:  A B C D E F G H I J K L M N O P Q R S T U V W X Y Z # 

Funeral, Swords, And Souls Tabs (ver.2)

Old Mans Child Tabs
 Rating:
4/5 (4 votes)
Funeral, Swords, And Souls lessons Tabs too difficult? Try these video lessons and learn fast
                .  - palm mute           /  - slide up to
\  - slide down to       ~  - vibrato
h  - hammer on           b  - Bend
p  - pull off            Suffixes for bend
t  - tap                 f  - full bend    h - half bend
ph - pinched harmonic    q  - quarter bend t - tap bend
*  - see comment         ^  - Hold bend    r release bend
x  - Stuccatto           ~  - vibrato bend
,  - slight palm mute    () - ghost note, sustained note
"  - tremolo picking        <> - Trill

Tunning E A D G B E
                                                                               >
INTRO

 GUITAR 1 FIG 1
|------------------------------------------------------------------------------|
|------------------------------------------------------------------------------|
|------------------------------------------------------------------------------|
|------------------------------------------------------------------------------|
|-2"-------5-3-2---------6"----4"---------4"----2"----4"----2"----5"----9"-----|
|-0"-------------3"-------------------2"---------------------------------------|
|
|
|GUITAR 2
|------------------------------------------------------------------------------|
|------------------------------------------------------------------------------|
|-----------------------------------------------------6"----4"----7"----11"----|
|------------------------------------------------------------------------------|
|------------------------------------------------------------------------------|
|------------------------------------------------------------------------------|



 GUITAR 2 FIG 1A
 (W/TERMOLO PICKING ALL TIME)
|----------------------------------------------------------------------|
|----------------------------------------------------------------------|
|-7-------7---9---7-------7---9----6-------6---7---6----4---7---11-----|
|-----9---------------9----------------7-------------------------------|
|----------------------------------------------------------------------|
|----------------------------------------------------------------------|


                                                    END FIG 1A (2 TIMES)
|----------------------------------------------------------------------|
|----------------------------------------------------------------------|
|-7-------7---9---7-------7---9----6-------6---7---6----4---11---9-----|
|-----9---------------9----------------7-------------------------------|
|----------------------------------------------------------------------|
|----------------------------------------------------------------------|



 FIG 2
 (W/TREM0LO PICKING)
|--------------------------------------------------------------------|
|-7----------------7----------------8---7-------7---8---7------------|
|-------------------------------------------9---------------9---7----|
|-----9--------9-------9--------9------------------------------------|
|---------10---------------10----------------------------------------|
|--------------------------------------------------------------------|


                                                   END FIG 2 (2 TIMES)
|--------------------------------------------------------------------|
|-7----------------7----------------8---7-------7---10---8---7---8---|
|-------------------------------------------9------------------------|
|-----9--------9-------9--------9------------------------------------|
|---------10---------------10----------------------------------------|
|--------------------------------------------------------------------|



 RHY PART VERSE                                                   (4 TIMES)
|-------------------------------------------------------------------------|
|-------------------------------------------------------------------------|
|------------------------4--------4---------------------------------------|
|------7--------5--------4--------4--------5--------2--------4--------5---|
|------7--------5--2--2--2--2--2--2--------5--------2--------4--------5---|
|-5-5--5--3--3--3--------------------3--3--3--0--0--0--2--2--2--3--3--3---|
  . .     .  .     .  .     .  .     .  .     .  .     .  .     .  .


 CHORUS          (4 TIMES)
|-------------------------|
|-------------------------|
|-------------------------|
|-4---------5----7---9----|
|-4---------5----7---9----|
|-2---------3----5---7----|



 FIG 2
 (W/TREM0LO PICKING)
|--------------------------------------------------------------------|
|-7----------------7----------------8---7-------7---8---7------------|
|-------------------------------------------9---------------9---7----|
|-----9--------9-------9--------9------------------------------------|
|---------10---------------10----------------------------------------|
|--------------------------------------------------------------------|


                                                   END FIG 2 (2 TIMES)
|--------------------------------------------------------------------|
|-7----------------7----------------8---7-------7---10---8---7---8---|
|-------------------------------------------9------------------------|
|-----9--------9-------9--------9------------------------------------|
|---------10---------------10----------------------------------------|
|--------------------------------------------------------------------|



 RHY PART VERSE                                                    (2 TIMES)
|-------------------------------------------------------------------------|
|-------------------------------------------------------------------------|
|------------------------4--------4---------------------------------------|
|------7--------5--------4--------4--------5--------2--------4--------5---|
|------7--------5--2--2--2--2--2--2--------5--------2--------4--------5---|
|-5-5--5--3--3--3--------------------3--3--3--0--0--0--2--2--2--3--3--3---|
  . .     .  .     .  .     .  .     .  .     .  .     .  .     .  .



 BRIDGE
|------------------------------------------------------------------------------|
|------------------------------------------------------------------------------|
|-------9--------9--------9-------------------5--------5--------5--------------|
|-------9--------9--------9-------------------5--------5--------5--------------|
|-7-7-7-7--7-7-7-7--7-7-7-7-4h6-6-6h7-7-3-3-3-3--3-3-3-3--3-3-3-3--0h2-2-2h3-3-|
|------------------------------------------------------------------------------|


                                                                       (2 TIMES)
|------------------------------------------------------------------------------|
|------------------------------------------------------------------------------|
|-------2--------2--------2-------------------5--------5--------5--------------|
|-------2--------2--------2-------------------5--------5--------5--------------|
|-0-0-0-0--0-0-0-0--0-0-0-0-3h4-4-4h6-6-3-3-3-3--3-3-3-3--3-3-3-3--0h2-2-2h3-3-|
|------------------------------------------------------------------------------|



 Ohh - VOCAL (W/ TREMOLO PICKING)
                                              (2 TIMES)
|------------------------------------------------------|
|------------------------------------------------------|
|------------------------------------------------------|
|-7---------9---10---9-------7---------9---10---12-----|
|------------------------------------------------------|
|------------------------------------------------------|


                                              (2 TIMES)
|------------------------------------------------------|
|------------------------------------------------------|
|-7---------9---10---9-------7---------9---10---12-----|
|------------------------------------------------------|
|------------------------------------------------------|
|------------------------------------------------------|



 BRIDGE
|------------------------------------------------------------------------------|
|------------------------------------------------------------------------------|
|-------9--------9--------9-------------------5--------5--------5--------------|
|-------9--------9--------9-------------------5--------5--------5--------------|
|-7-7-7-7--7-7-7-7--7-7-7-7-4h6-6-6h7-7-3-3-3-3--3-3-3-3--3-3-3-3--0h2-2-2h3-3-|
|------------------------------------------------------------------------------|


                                                                       (2 TIMES)
|------------------------------------------------------------------------------|
|------------------------------------------------------------------------------|
|-------2--------2--------2-------------------5--------5--------5--------------|
|-------2--------2--------2-------------------5--------5--------5--------------|
|-0-0-0-0--0-0-0-0--0-0-0-0-3h4-4-4h6-6-3-3-3-3--3-3-3-3--3-3-3-3--0h2-2-2h3-3-|
|------------------------------------------------------------------------------|



 CHORUS          (4 TIMES)
|-------------------------|
|-------------------------|
|-------------------------|
|-4---------5----7---9----|
|-4---------5----7---9----|
|-2---------3----5---7----|


 FIG 1A
 (W/TERMOLO PICKING ALL TIME)
|----------------------------------------------------------------------|
|----------------------------------------------------------------------|
|-7-------7---9---7-------7---9----6-------6---7---6----4---7---11-----|
|-----9---------------9----------------7-------------------------------|
|----------------------------------------------------------------------|
|----------------------------------------------------------------------|


                                                    END FIG 1A (2 TIMES)
|----------------------------------------------------------------------|
|----------------------------------------------------------------------|
|-7-------7---9---7-------7---9----6-------6---7---6----4---11---9-----|
|-----9---------------9----------------7-------------------------------|
|----------------------------------------------------------------------|
|----------------------------------------------------------------------|



 FIG 2
 (W/TREM0LO PICKING)
|--------------------------------------------------------------------|
|-7----------------7----------------8---7-------7---8---7------------|
|-------------------------------------------9---------------9---7----|
|-----9--------9-------9--------9------------------------------------|
|---------10---------------10----------------------------------------|
|--------------------------------------------------------------------|


                                                   END FIG 2 (2 TIMES)
|--------------------------------------------------------------------|
|-7----------------7----------------8---7-------7---10---8---7---8---|
|-------------------------------------------9------------------------|
|-----9--------9-------9--------9------------------------------------|
|---------10---------------10----------------------------------------|
|--------------------------------------------------------------------|



 RHY PART VERSE                                                  (4 TIMES)
|-------------------------------------------------------------------------|
|-------------------------------------------------------------------------|
|------------------------4--------4---------------------------------------|
|------7--------5--------4--------4--------5--------2--------4--------5---|
|------7--------5--2--2--2--2--2--2--------5--------2--------4--------5---|
|-5-5--5--3--3--3--------------------3--3--3--0--0--0--2--2--2--3--3--3---|
  . .     .  .     .  .     .  .     .  .     .  .     .  .     .  .
            
Submit corrections

comments powered by Disqus
↑ Back to top | Old Mans Child Tabs for Funeral, Swords, And Souls. Lyrics for acoustic guitar and electric guitar. Tablatures and chords are parodies/interpretations of the original songs. You may use it for private study, scholarship, research or language learning purposes only