» » »

Old Mans Child, Felonies Of The Christian Art Bass tabs (ver.1)

Artists:  A B C D E F G H I J K L M N O P Q R S T U V W X Y Z # 

Felonies Of The Christian Art Bass tabs (ver.1)

Old Mans Child Tabs
 Rating:
4/5 (4 votes)
Felonies Of The Christian Art lessons Tabs too difficult? Try these video lessons and learn fast
                Intro / verse


G#:-|----------------------------------------------------------------------------
D#:-|----------------------------------------------------------------------------
A#:0|-3-2-1-0-3-2-1-0-3-2-1-0-------3-2-1-0-3-2-1-0-3-2-1-0-----------------------
D#:-|-------------------------5-6-7-------------------------5-6-7-9---------------

G#:-------------------
D#:-------------------
A#:-0 [let note ring]
D#:-------------------

G#:-------------------------------
D#:-------------------------------
A#:2-4-2-4-7-5-2-4-2-4-10-5     [that’s ten]
D#:-------------------------------




Verse [after keyboard solo]

G#:-----------------------------------------------------------
D#:-----------------------------------------------------------
A#:5555555555-333333333-000000000-4444444444------------------
D#:-----------------------------------------------------------

G#:-------------------------------------------------
D#:-------------------------------------------------
A#:222-2222-222-2222-000-0000-000-0000--------------
D#:-------------------------------------------------

G#:-------------------------------------------------
D#:-------------------------------------------------
A#:8—5-7-5-4-5-7-8-5-7-5-4-5-7-10-8-10-8  [ten again]
D#:-------------------------------------------------

Then 
G#:----------------------------------------------------------------------------
D#:----------------------------------------------------------------------------
A#:3-2-1-0-3-2-1-0-3-2-1-0--------3-2-1-0-3-2-1-0-3-2-1-0----------------------
D#:------------------------5-6-7--------------------------5-6-7-9--------------


Then Pre/during guitar solo

G#:-----------------------
D#:-----------------------
A#:0-4-2—0-4-2------------
D#:-----------------5-6-7-


Then
G#:-------------------------------
D#:-------------------------------
A#:2-4-2-4-7-5-2-4-2-4-10-5     [that’s ten]
D#:-------------------------------


Then once again with distortion on

Then
G#:-----------------------------------------------------------
D#:-----------------------------------------------------------
A#:5555555555-333333333-000000000-4444444444------------------
D#:-----------------------------------------------------------


then

G#:-------------------------------------------------
D#:-------------------------------------------------
A#:222-2222-222-2222-000-0000-000-0000--------------
D#:p----p---p---p----p---p----p---p-----------------

Then 
G#:-------------------------------------------------
D#:-------------------------------------------------
A#:222-2222-222-2222-000-0000-000-0000--------------
D#:-------------------------------------------------


Afer that
G#:----------------------------------------------------------------------------
D#:----------------------------------------------------------------------------
A#:3-2-1-0-3-2-1-0-3-2-1-0-------3-2-1-0-3-2-1-0-3-2-1-0-----------------------
D#:------------------------5-6-7-------------------------5-6-7-9---------------

Then end with bending the string down on the 9


thats it
            
Submit corrections

comments powered by Disqus
↑ Back to top | Old Mans Child Bass for Felonies Of The Christian Art. Lyrics for acoustic guitar and electric guitar. Tablatures and chords are parodies/interpretations of the original songs. You may use it for private study, scholarship, research or language learning purposes only