» » »

Old Mans Child, Fall Of Man Tabs (ver.1)

Artists:  A B C D E F G H I J K L M N O P Q R S T U V W X Y Z # 

Fall Of Man Tabs (ver.1)

Old Mans Child Tabs
 Rating:
4.2/5 (5 votes)
Fall Of Man lessons Tabs too difficult? Try these video lessons and learn fast
1
                                       "Fall Of Man" by Old Man's Child 
                 from the album "Ill-Natured Spiritual Invasion"


Tablature Explanation :
h - hammer-on
p - pull-off
~ - vibrato
^ - bend
P.M. - palm mute
(A.H) - artificial harmonic
\ - slide

Standard tuning

Intro (Guitar 1)
E|-----------------------------------------------------|
B|-----------------------------------------------------|
G|------4-----4-----4-----4-----4-------7-----6-----5--|
D|----5-----5-----5-----5-----5------8------7-----6----|
A|--7-----7-----7-----7-----7-----10------9-----8------|
E|-----------------------------------------------------|
P.M.- -   - -   - -   - -   - -   -- -    - -   - -

(Guitar 2)
E|----------------------------------------------------------------|
B|----------------------------------------------------------------|
G|----------------------------------------------------------------|
D|----------------------------------------------------------------|
A|--------2--------2--------5-4-3--------2--------2--------5-4-9--|
E|--0-0-0-0--0-0-0-0--0-0-0-3-2-1--0-0-0-0--0-0-0-0--0-0-0-3-2-7--|
P.M.- - -    - - -    - - -        - - -    - - -    - - - 

(Guitar 1)                                             End with (both 1 &2)
E|-----------------------------------------------------|------------------|
B|-----------------------------------------------------|------------------|
G|------4-----4-----4-----4-----4-------7-----6-----4--|------------------|
D|----5-----5-----5-----5-----5------8------7-----4----|------------------|
A|--7-----7-----7-----7-----7-----10------9-----6------|--7\\\\-----------|
E|-----------------------------------------------------|--0---------------|
P.M.- -   - -   - -   - -   - -   -- -    - -   - -

Next Riff is
E|-----------------------------------------------|
B|-----------------------------------------------|
G|-----------------------------------------------|
D|--------------9\8/9--8---------------8\7/8--9--|
A|-----------2--7\6-7--6------------9--6\5-6--7--|
E|--0--0-0-0-0-------------7--7-7-7-7------------|
P.M.-  - - -               -  - - -  

E|---------------------------------------------------|------|
B|---------------------------------------------------|------|
G|---------------------7-----------------------------|------|
D|--------------9\8/9--5-9-----------11-8------------|------|
A|-----------2--7\6-7----7------------9-6------------|--7\--|
E|--0--0-0-0-0--------------8--8-8-8-------7--7-7-7--|--0---|
P.M.-  - - -                -  - - -       -  - - -  

My favourite Riff
E|----------------------------------------------------------|
B|----------------------------------------------------------|
G|----------------------------------------------------------|
D|---------------------------------------4-------3-------2--|
A|-----------7\----------5\4/5-----------2-------1-------0--|
E|--0--0-0-0-0--0--0-0-0-3\2/3--0--0-0-0---0-0-0---0-0-0----|
P.M.-  - - -    -  - - -        -  - - -   - - -   - - - 

E|----------------------------------------------------------|
B|----------------------------------------------------------|
G|----------------------------------------------------------|
D|---------------------------------------4-------5-------7--|
A|-----------7\----------5\4/5-----------2-------3-------5--|
E|--0--0-0-0-0--0--0-0-0-3\2/3--0--0-0-0---0-0-0---0-0-0----|
P.M.-  - - -    -  - - -        -  - - -   - - -   - - - 

After the keyboard section
E|---------------------------------------------------------------------|
B|---------------------------------------------------------------------|
G|---------------------------------------------------------4-4-4--4-4--|
D|--2-2-2--2-2-2--2-2-2--2-2-2--2-2---5-5-5--5-5-5--5-5-5--4-4-4--4-4--|
A|--2-2-2--2-2-2--2-2-2--2-2-2--2-2---5-5-5--5-5-5--5-5-5--2-2-2--2-2--|
E|--0-0-0--0-0-0--0-0-0--0-0-0--0-0---3-3-3--3-3-3--3-3-3--------------|
P.M.- - -  - - -  - - -  - - -  - -   - - -  - - -  - - -  - - -  - -

"We are natures failure..."
E|----------------------------------------------------------------------------|
B|----------------------------------------------------------------------------|
G|----------------------------------------------------------------------------|
D|---------------------------------------------------12-12-12-12-12-12-12-12--|
A|--7-------9-------10-------9-------7-------9-------10-10-10-10-10-10-10-10--|
E|----0-0-0---0-0-0----0-0-0---0-0-0---0-0-0---0-0-0--------------------------|
P.M.  - - -   - - -    - - -   - - -   - - -   - - -

E|-------------------------------------------------------------------|
B|-------------------------------------------------------------------|
G|-------------------------------------------------------------------|
D|--------------------------------------------------3-3-3-3-3-3-3-3--|
A|--5-------7-------8-------7-------5-------7-------1-1-1-1-1-1-1-1--|
E|----3-3-3---3-3-3---3-3-3---3-3-3---3-3-3---3-3-3------------------|
P.M.  - - -   - - -   - - -   - - -   - - -   - - -

After "...a creature that has lost its place"
E|----------------------------------------------------------------|
B|----------------------------------------------------------------|
G|----------------------------------------------------------------|
D|---------------------------------------12-12-12-12-12-12-12-12--|
A|--7-----9-----10-----9-----7-----9-----10-10-10-10-10-10-10-10--|
E|----0-0---0-0----0-0---0-0---0-0---0-0--------------------------|
P.M.  - -   - -    - -   - -   - -   - -

E|-------------------------------------------------------|
B|-------------------------------------------------------|
G|-------------------------------------------------------|
D|--------------------------------------3-3-3-3-3-3-3-3--|
A|--5-----7-----8-----7-----5-----7-----1-1-1-1-1-1-1-1--|
E|----3-3---3-3---3-3---3-3---3-3---3-3------------------|
P.M.  - -   - -   - -   - -   - -   - -

...and the last Riff...
E|-------------------------------------------------------------|----------|
B|-------------------------------------------------------------|----------|
G|--4-----5-----6-----7------8------9-------10-------11--------|----------|
D|----5-----6-----7-----8------9------10-------11-------12-----|----------|
A|------7-----8-----9-----10-----11------12-------13-------14--|--7---7\--|
E|-------------------------------------------------------------|--0---0---|
            
Submit corrections

comments powered by Disqus
↑ Back to top | Old Mans Child Tabs for Fall Of Man. Lyrics for acoustic guitar and electric guitar. 1 Tablatures and chords are parodies/interpretations of the original songs. You may use it for private study, scholarship, research or language learning purposes only