» » »

Old Mans Child, Demons Of The Thorncastle Tabs (ver.1)

Artists:  A B C D E F G H I J K L M N O P Q R S T U V W X Y Z # 

Demons Of The Thorncastle Tabs (ver.1)

Old Mans Child Tabs
 Rating:
4/5 (4 votes)
Demons Of The Thorncastle lessons Tabs too difficult? Try these video lessons and learn fast
                

Some parts of the song are quite hard to hear, especially those second guitar
melodies played with lots of high e notes, so there may be some mistakes in these.

Riff 1, first time play only fourth bar,
e|--------|-------|-------|-------|
B|--------|-------|-------|-------|
G|--------|-------|-------|-------|
D|--------|-------|-------|-------|
A|-----4--|----4--|----4--|-------|
E|-2-222--|2-222--|2-222--|1h4-1--|

Riff 2,
e|--------|-------|-------|-------|-------|-------|-------|--------|
B|--------|-------|-------|-------|-------|-------|-------|--------|
G|--------|-------|-------|-------|-------|-------|-------|--------|
D|--------|-------|-------|-------|-------|-------|------7|6-------|
A|-----9--|----9--|----9--|----9--|----8--|----8--|----8-5|4-9-8-9-|
E|-7-777--|7-777--|7-777--|7-777--|6-666--|6-666--|6-666--|--7-6-7-|


Riff 3, guitar 1 plays riff 1 while guitar 2 plays something like this:
e|--------|-------|-------|-------|
B|--------|-------|-------|-------|
G|-11~---9~------7~------6--h7p6--|
D|--------|-------|-------|------8|
A|--------|-------|-------|-------|
E|--------|-------|-------|-------|

Riff 4, guitar 1 plays single chords, guitar 2 uses tremolo picking
Guitar 1
e|-----------------------------------------------------------------|
B|-----------------------------------------------------------------|
G|-2---------------------------------------------------------------|
D|-2--------------------------------3------------------------------|
A|-0--------------------------------3------------------------------|
E|----------------------------------1------------------------------|

Guitar 2
e|-----------------------------------------------------------------|
B|-----------------------------------------------------------------|
G|------------------------------7-7-----------------1010109-9-9-7-7|
D|-7-7-7-7-7-7-7-7-9-9-9-101010-----1010101010101010---------------|
A|-----------------------------------------------------------------|
E|-----------------------------------------------------------------|

Guitar 1
e|-----------------------------------------------------------------|
B|-----------------------------------------------------------------|
G|-----------------------------------------------------------------|
D|-7--------------------------------2------------------------------|
A|-5--------------------------------2------------------------------|
E|-5--------------------------------0------------------------------|

Guitar 2
e|-----------------------------------------------------------------|
B|-----------------------------------------------------------------|
G|-10101010101010107-7-7-9-9-9-1010-9-9-9-9-9-9-9-9----------------|
D|--------------------------------------------------9-9-9-1010109-9|
A|-----------------------------------------------------------------|
E|-----------------------------------------------------------------|

Riff 5, guitar 2 part is played after the whole riff's been played two times
Guitar 1
e|------------------------|-----------------------|
B|------------------------|-----------------------|
G|-------------------7-7-7|------------------9-9-9|
D|-------1010109-9-9------|------1010109-9-9------|
A|-0---0------------------|0---0------------------|
E|------------------------|-----------------------|
Guitar 2
e|-5-0-0-8-0-0-7-0-0-100-0|5-0-0-8-0-0-7-0-0-120-0|
B|------------------------|-----------------------|
G|------------------------|-----------------------|
D|------------------------|-----------------------|
A|------------------------|-----------------------|
E|------------------------|-----------------------|

Guitar 1
e|------------------------|-----------------------|
B|------------------------|-----------------------|
G|-------------------7-7-7|9-9-9-7-7-7------------|
D|-------1010109-9-9------|------------1010109-9-9|
A|-0---0------------------|-----------------------|
E|------------------------|-----------------------|
Guitar 2
e|-5-0-0-8-0-0-7-0-0-100-0|8-0-0-7-0-0-5-0-0-4-0-0|
B|------------------------|-----------------------|
G|------------------------|-----------------------|
D|------------------------|-----------------------|
A|------------------------|-----------------------|
E|------------------------|-----------------------|

Riff 6, play single chords, 5 on e string is played by guitar 2,
e|-5~--------------------------------------------------------------|
B|-----------------------------------------------------------------|
G|-2---------------------------------------------------------------|
D|-2---------------3----------------7---------------2--------------|
A|-0---------------3----------------5---------------2--------------|
E|-----------------1----------------5---------------0--------------|

Riff 4

Riff 3

Riff 7, let ring this one note during the keyboard part and at the end do
a pick slide
e|-----------------------------------------------------------------|
B|-----------------------------------------------------------------|
G|-----------------------------------------------------------------|
D|-9~--------------------------------------------------------------|
A|-----------------------------------------------------------------|
E|-----------------------------------------------------------------|

Riff 8, some parts are missing, sorry for that,
Guitar 1
e|-------------------------------------------------|
B|-------------------------------------------------|
G|-------------------------------------------------|
D|---------------------7---5-----7p5p4-2-----------|
A|-2-----------2-----------------------------------|
E|---------2---------------------------------------|
Guitar 2
e|-------------------------------------------------|
B|-------------------------------------------------|
G|-------------------------------------------------|
D|-------------------------------------------------|
A|-------------------------------------------------|
E|-------------------------------------------------|

Guitar 1
e|-------------------------------------------------|
B|-------------------------------------------------|
G|-2-4-5-4-5-7-5-------7---4-------542-42--2-------|
D|---------------------------------------5--45-541-|
A|-------------------------------------------------|
E|-------------------------------------------------|
Guitar 2
e|-------------------------------------------------|
B|-------------------------------------------------|
G|-------------------------------------------------|
D|-------------------------------------------------|
A|-------------------------------------------------|
E|-------------------------------------------------|

Guitar 1
e|-------------------------------------------------|
B|-------------------------------------------------|
G|-------------------------------------------------|
D|---------------------7---5-----7p5p4-2-----------|
A|-2-----------2-----------------------------------|
E|---------2---------------------------------------|
Guitar 2
e|-------------------------------------------------|
B|-------------------------------------------------|
G|-------------------------------------------------|
D|-------------------------------------------------|
A|-------------------------------------------------|
E|-------------------------------------------------|

Guitar 1
e|-------------------------------------------------|
B|-------------------------------------------------|
G|-2-4-5-4-5-7-5-------7---4-------542-42--2-------|
D|---------------------------------------5--45-541-|
A|-------------------------------------------------|
E|-------------------------------------------------|
Guitar 2
e|-------------------------------------------------|
B|-------------------------------------------------|
G|-------------------------------------------------|
D|-------------------------------------------------|
A|-------------------------------------------------|
E|-------------------------------------------------|

Guitar 1
e|-------------------------------------------------|
B|-------------------------------------------------|
G|-------------------------------------------------|
D|-------------2-----------------------------------|
A|-2---4---5-------5---4---------------------------|
E|-------------------------0---2---3---5---3---2---|
Guitar 2
e|-------------------------------------------------|
B|-------------5-----------------------------------|
G|-4---6---7-------7---6---------------2-----------|
D|-------------------------2---4---5-------4---5---|
A|-------------------------------------------------|
E|-------------------------------------------------|

Guitar 1
e|-------------------------------------------------|
B|-------------------------------------------------|
G|-------------------------------------------------|
D|-------------------------------------------------|
A|-------------------------------------------------|
E|-3~------------------5---2~----------------------|
Guitar 2
e|-------------------------------------------------|
B|-------------------------------------------------|
G|---------------------2---------------------------|
D|-5~----------------------4~----------------------|
A|-------------------------------------------------|
E|-------------------------------------------------|

Guitar 1
e|-------------------------------------------------|
B|-------12----------12----------12----------12----|
G|---1112--1211--1112--12119-1112--12119-1112--1211|
D|-9-----------9-----------------------------------|
A|-------------------------------------------------|
E|-------------------------------------------------|
Guitar 2
e|-------------------------------------------------|
B|-------------------------------------------------|
G|-------------------------------------------------|
D|-------------------------------------------------|
A|-------------------------------------------------|
E|-------------------------------------------------|

Guitar 1
e|-------------------------------------------------|
B|-------12----------12----------------------------|
G|---1112--1211--1112--121111~---12119-11~---------|
D|-10----------10----------------------------------|
A|-------------------------------------------------|
E|-------------------------------------------------|
Guitar 2
e|-------------------------------------------------|
B|-------------------------------------------------|
G|-------------------------------------------------|
D|-------------------------------------------------|
A|-------------------------------------------------|
E|-------------------------------------------------|

Riff 2, with some kind of a solo I couldn't tab,

Riff 4, second time guitar 2 plays something like this
e|-5-0-0-7-0-0-8-0-0-100-0|5-0-0-7-0-0-8-0-0-100-0|
B|------------------------|-----------------------|
G|------------------------|-----------------------|
D|------------------------|-----------------------|
A|------------------------|-----------------------|
E|------------------------|-----------------------|

e|-5-0-0-7-0-0-8-0-0-100-0|5-0-0-7-0-0-8-0-0-7-0-0|
B|------------------------|-----------------------|
G|------------------------|-----------------------|
D|------------------------|-----------------------|
A|------------------------|-----------------------|
E|------------------------|-----------------------|

e|-8-0-0-100-0-120-0-100-0|8-0-0-7-0-0-5-0-0-7-0-0|
B|------------------------|-----------------------|
G|------------------------|-----------------------|
D|------------------------|-----------------------|
A|------------------------|-----------------------|
E|------------------------|-----------------------|

e|-5-0-0-7-0-0-8-0-0-7-0-0|5-0-0-4-0-0-5-0-0-7-0-0|
B|------------------------|-----------------------|
G|------------------------|-----------------------|
D|------------------------|-----------------------|
A|------------------------|-----------------------|
E|------------------------|-----------------------|

Riff 5, guitar 2 plays its part from the first time while guitar 1 plays
high e

Riff 6

Riff 1
            
Submit corrections

comments powered by Disqus
↑ Back to top | Old Mans Child Tabs for Demons Of The Thorncastle. Lyrics for acoustic guitar and electric guitar. Tablatures and chords are parodies/interpretations of the original songs. You may use it for private study, scholarship, research or language learning purposes only