» » »

Old Mans Child, Christian Death Tabs (ver.1)

Artists:  A B C D E F G H I J K L M N O P Q R S T U V W X Y Z # 

Christian Death Tabs (ver.1)

Old Mans Child Tabs
 Rating:
4/5 (4 votes)
Christian Death lessons Tabs too difficult? Try these video lessons and learn fast
1
                .  - palm mute           /  - slide up to
\  - slide down to       ~  - vibrato
h  - hammer on           b  - Bend
p  - pull off            Suffixes for bend
t  - tap                 f  - full bend    h - half bend
ph - pinched harmonic    q  - quarter bend t - tap bend
*  - see comment         ^  - Hold bend    r release bend
x  - Stuccatto           ~  - vibrato bend
,  - slight palm mute    () - ghost note, sustained note
"  - tremolo note        <> - Trill

Tunning E A D G B E

  E5      G        F# B         G        F# E        G        F#  D     C   B   C

FIG 1  (4 TIMES)
|----------------------------------------------------------------------------------|
|----------------------------------------------------------------------------------|
|----------------------------------------------------------------------------------|
|-9--9----12-12-12-11-----------12-12-12-11--9--9----12-12-12-11-------------------|
|-7--7----10-10-10--9--9---9----10-10-10--9--7--7----10-10-10--9--12-12--10--9--10-|
|-0--0-----------------7---7--------------------------------------10-10---8--7---8-|
                                                                             .   .

FIG 2  (4 TIMES)
|------------------------------------------------------------------------------------|
|------------------------------------------------------------------------------------|
|------------------------------------------------------------------------------------|
|-9-------11-12---------9-------9-11---------9-------11-12---------9--------9-9-9-11-|
|-7--------9-10---------7-------7--9---------7--------9-10---------7--------7-7-7--9-|
|---0-0-0-------0-0-0-0---0-0-0------0-0-0-0---0-0-0-------0-0-0-0---0-0-0-----------|


VERSE  W/TREMOLO PICKING      8 TIMES
|--------------------------------------|
|--------------------------------------|
|-9"------------7"--------------7"-----|
|--------------------9"---10"----------|
|--------------------------------------|
|--------------------------------------|

FIG 3                      1,2,3  | 4                ALL WHOLE 2 TIMES
|---------------------------------|-----------------------------------|
|---------------------------------|-----------------------------------|
|---------------------------------|-----------------------------------|
|-------9-------9-----------------|-------9-------9----------12-12-11-|
|-7-7-7-7-7-7-7-7-------9-------9-|-7-7-7-7-7-7-7-7-------9--10-10--9-|
|-----------------7-7-7-7-7-7-7-7-|-----------------7-7-7-7-----------|
  . . .   . . .   . . .   . . .     . . .   . . .   . . .


FIG 1  (4 TIMES)
|----------------------------------------------------------------------------------|
|----------------------------------------------------------------------------------|
|----------------------------------------------------------------------------------|
|-9--9----12-12-12-11-----------12-12-12-11--9--9----12-12-12-11-------------------|
|-7--7----10-10-10--9--9---9----10-10-10--9--7--7----10-10-10--9--12-12--10--9--10-|
|-0--0-----------------7---7--------------------------------------10-10---8--7---8-|


VERSE  W/TREMOLO PICKING     8 TIMES
|--------------------------------------|
|--------------------------------------|
|-9"------------7"--------------7"-----|
|--------------------9"---10"----------|
|--------------------------------------|
|--------------------------------------|

 W/ TREMOLO PICKING                                     NO TREMOLO PICKING (*)
|------------------------------------------------------------------------------|
|------------------------------------------------------------------------------|
|------------------------------------------------------------------------------|
|------------------------------------------------------------------------------|
|-7"----10"--9"--7"--9"--------10"--9"--7"--9-7"-----10"--9"--7"--9"-----7--9--|
|------------------------7"-------------------------------------------8--------|
                                            *                         *  *  *

                                                                4 TIMES
|-------------------------------------------------------------------------|
|-------------------------------------------------------------------------|
|-------------------------------------------------------------------------|
|------------------------------------------------------------------12--14-|
|-7~~~--7--5-7--9---------9--7--9--10~~~--10--9--10--12~~~--14~~~---------|
|------------------7~~~---------------------------------------------------|


FIG 3                      1,2,3  | 4                ALL WHOLE 2 TIMES
|---------------------------------|-----------------------------------|
|---------------------------------|-----------------------------------|
|---------------------------------|-----------------------------------|
|-------9-------9-----------------|-------9-------9----------12-12-11-|
|-7-7-7-7-7-7-7-7-------9-------9-|-7-7-7-7-7-7-7-7-------9--10-10--9-|
|-----------------7-7-7-7-7-7-7-7-|-----------------7-7-7-7-----------|
  . . .   . . .   . . .   . . .     . . .   . . .   . . .


FIG 1  (4 TIMES)
|----------------------------------------------------------------------------------|
|----------------------------------------------------------------------------------|
|----------------------------------------------------------------------------------|
|-9--9----12-12-12-11-----------12-12-12-11--9--9----12-12-12-11-------------------|
|-7--7----10-10-10--9--9---9----10-10-10--9--7--7----10-10-10--9--12-12--10--9--10-|
|-0--0-----------------7---7--------------------------------------10-10---8--7---8-|


FIG 2  (4 TIMES)
|------------------------------------------------------------------------------------|
|------------------------------------------------------------------------------------|
|------------------------------------------------------------------------------------|
|-9-------11-12---------9-------9-11---------9-------11-12---------9--------9-9-9-11-|
|-7--------9-10---------7-------7--9---------7--------9-10---------7--------7-7-7--9-|
|---0-0-0-------0-0-0-0---0-0-0------0-0-0-0---0-0-0-------0-0-0-0---0-0-0-----------|

END
            
Submit corrections

comments powered by Disqus
↑ Back to top | Old Mans Child Tabs for Christian Death. Lyrics for acoustic guitar and electric guitar. 1 Tablatures and chords are parodies/interpretations of the original songs. You may use it for private study, scholarship, research or language learning purposes only