» » »

Girth And Greed Tabs (ver.1)

Artists:  A B C D E F G H I J K L M N O P Q R S T U V W X Y Z # 

Girth And Greed Tabs (ver.1)

Old Man Gloom
Rating:
0/5 (0 votes)

Hard to play? Try these video lessons and learn fast.
                OLD MAN GLOOM
GIRTH AND GREED
ALBUM CHRISTMAS

Tuning: (B F# B E G# C#)

INTRO

C#|---------------------------------------------------------------------|
G#|---------------------------------------------------------------------|
E |--------------------------------------------------------------   X12-|
B |----13P12P0---8P07P0-5P0--0—11P0—5P0---------------------------------|
F#|---------------------------------------------------------------------|
B |---------------------------------------------------------------------|


C#|------------------------------------------------------------------|
G#|------------------------------------------------------------------|
E |------------------------------------------------------------------|  X4
B |----870-55----0---870-33----0---870-55---0--44---0--33------------|
F#|----870-55----0---870-33----0---870-55---0--44---0--33------------|
B |----870-55----0---870-33----0---870-55---0--44---0--33------------|


C#|------------------------------------------------------------------|
G#|------------------------------------------------------------------|
E |---------77---------76-----------77-----------6/------------------|
B |----870--77---0870--76-----0870--77----0870---6/------------------|
F#|----870--55---0870--54-----0870--55----0870---4/------------------|
B |----870-------0870---------0870 -------0870-----------------------|


C#|---------------------------------------------------------------------|
G#|---------------------------------------------------------------------|
E |---------------------------------------------------------------------|   X8
B |----13P12P0---8P07P0-5P0--0—11P0—5P0---------------------------------|
F#|---------------------------------------------------------------------|
B |---------------------------------------------------------------------|


C#|--------------------------------------------------------------------|
G#|--------------------------------------------------------------------|
E |---------77----------------76-----------------77--------76----------|
B |----870--77---X5----0870---76—--X1-------870--77--0870--76----------|
F#|----870--55---------0870---54------------870--55--0870--54----------|
B |----870-------------0870-----------------870------0870--------------|


C#|---------------------------------------------------------------------|
G#|---------------------------------------------------------------------|
E |---------77----------------76-----------------77-----77---7//--------|
B |----870--77---X5----0870---76—--X1-------870--77---8-77-8-7//--------|
F#|----870--55---------0870---54------------870--55---8-55-8-5//--------|
B |----870-------------0870-----------------870-------8----8------------|
            
Hard to play? Try these video lessons and learn fast. | Correct




comments powered by Disqus
↑ Back to top | Tablatures and chords are parodies/interpretations of the original songs. You may use it for private study, scholarship, research or language learning purposes only