» » »

Old Man Gloom, Afraid Of Tabs (ver.1)

Artists:  A B C D E F G H I J K L M N O P Q R S T U V W X Y Z # 

Afraid Of Tabs (ver.1)

Old Man Gloom Tabs
Rating:
0/5 (0 votes)
Afraid Of lessons Tabs too difficult? Try these video lessons and learn fast
                -----------------------------------------------------------------|
-----------------------------------------------------------------|
-----------------------------------------------------------------|
-----------------------------------------------------------------|
-1-1-1-1-1-1-1-1-1-1-1-1-1-1-1-1-0-0-0-0-0-0-0-0-0-0-0-0-0-0-0-0-|
-1-0-1-0-1-0-1-0-1-0-1-0-1-0-1-0-4-0-4-0-4-0-4-0-4-0-4-0-4-0-4-0-|

  (Slightly dirty, neck pickup)

-----------------------------------------------------------------|
-----------------------------------------------------------------|
-----------------------------------------------------------------|
-----------------------------------------------------------------|
-1-1-1-1-1-1-1-1-1-1-1-1-1-1-1-1-0-0-0-0-0-0-0-0-0-0-0-0-0-0-0-0-|
-1-0-1-0-1-0-1-0-1-0-1-0-1-0-1-0-4-0-4-0-4-0-4-0-4-0-4-0-4-0-4-0-|


   (Full distortion, bridge pickup)

-----------------------------------------------------------------|
-----------------------------------------------------------------|
-----------------------------------------------------------------|
-----------------------------------------------------------------|
-1-1-1-1-1-1-1-1-1-1-1-1-1-1-1-1-0-0-0-0-0-0-0-0-0-0-0-0-0-0-0-0-|
-1-0-1-0-1-0-1-0-1-0-1-0-1-0-1-0-4-0-4-0-4-0-4-0-4-0-4-0-4-0-4-0-|


   "Feel the heat rise! Kneel to hot sand!"

-------------------------------------------------------------------------|
-------------------------------------------------------------------------|
-------------------------------------------------------------------------|
-------------------------------------------------------------------------|
-<7>-<7>-<7>-<7>-<7>-<7>-<7>-<7>-<7>-<7>-<7>-<7>-<7>-<7>-<7>-<7>---------|
-------------------------------------------------------------------------|

------------------------------|
------------------------------|
------------------------------|          x4
-0-0-8-7-0-7--0-1-------------|(4)
-0-0-6-5-0-5--0-1-------------|(4)
-0-0-----0----0-1-------------|(4)
   .   .             .          .


------------------------------------------------|
------------------------------------------------|
------------------------------------------------|
-7--7--7--7--7--7--7--7--7--7--7--7--7--7--7--7-|
-5--5--5--5--5--5--5--5--4--4--4--4--4--4--4--4-|
-5--5--5--5--5--5--5--5--4--4--4--4--4--4--4--4-|


-----------------------------|
---------------------3-------|
---------------------2-------|
-3--3--3--3--0-0-0-0---0-0-0-|
-3--3--3--3--0-0-0-0---0-0-0-|
-3--3--3--3--0-0-0-0---0-0-0-|
                               .   .   .    .        .   .   .


------------------------------------------------|
------------------------------------------------|
------------------------------------------------|
-7--7--7--7--7--7--7--7--7--7--7--7--7--7--7--7-|
-5--5--5--5--5--5--5--5--4--4--4--4--4--4--4--4-|
-5--5--5--5--5--5--5--5--4--4--4--4--4--4--4--4-|

-------------------------------|
---------------------3---------|
---------------------2---------|
-3--3--3--3--0-0-0-0---0-0-0-0-|
-3--3--3--3--0-0-0-0---0-0-0-0-|
-3--3--3--3--0-0-0-0---0-0-0-0-|
                               .   .   .    .        .   .   .    .


. = Palm Mute

<>= Natural Harmonic


One of the easiest songs you could ever play.
            
Submit corrections

comments powered by Disqus
↑ Back to top | Old Man Gloom Tabs for Afraid Of. Lyrics for acoustic guitar and electric guitar. Tablatures and chords are parodies/interpretations of the original songs. You may use it for private study, scholarship, research or language learning purposes only