» » »

Baby C'mon Bass tabs (ver.1)

Artists:  A B C D E F G H I J K L M N O P Q R S T U V W X Y Z # 

Baby C'mon Bass tabs (ver.1)

Ol Dirty Bastard
Rating:
0/5 (0 votes)

Hard to play? Try these video lessons and learn fast.
                This is the bass loop that appears throughout the song.
--------9----------|
------------7--6---|
--7----------------|
-------------------|

--------9----------|
------------7--6---|
--7----------------|
-------------------|

it is a very similar pattern to the Raekwon song "Guillotine" which makes me think that 
RZA probably makes most of his own beats from scratch with a sampler or something of the like.

guillotine (slightly different timing, not a bass line) :

 ------9---8--------|
-------------7--6---|
--7-----------------|
--------------------|
            
Hard to play? Try these video lessons and learn fast. | Correct




comments powered by Disqus
↑ Back to top | Tablatures and chords are parodies/interpretations of the original songs. You may use it for private study, scholarship, research or language learning purposes only