» » »

Oldfield Mike, The Exorcist Tabs (ver.2)

Artists:  A B C D E F G H I J K L M N O P Q R S T U V W X Y Z # 

The Exorcist Tabs (ver.2)

Oldfield Mike Tabs
Rating:
0/5 (0 votes)
The Exorcist lessons Tabs too difficult? Try these video lessons and learn fast
                The piano intro to the original Tubular Bells was used as the theme to
 The Exorcist. The only other bit I noticed was the thrashy electric guitar
 section - just straight barre chords going up and down. What's that shape
 called - like an F major on the first fret?
 
It's a lot easier if you play it an octave lower, viz.:
(Also from memory, so please forgive any errors - however, it's just
 a fingerpick on an A minor in the first position)


 -|-----------------------------------------------------------
 -|-----------0-----------------1-----3------0-^-1------------
 -|-----2-----------0-^-2-------------------------------------
 -|--2-----2----2-----------2------2-----2--------------------
 -|-----0-------0---------------------------------------------
 -|-----------------------------------------------------------

 -|-----------------------------------------------------------
 -|-----------0-----------------1-----3------0-^-1-----0------
 -|-----2-----------0-^-2-------------------------------------
 -|--2-----2----2-----------2------2-----2----------2---------
 -|-----0-------0---------------------------------------------
 

+---------------------------------------+----------------------------+
|Logica Cambridge (User Interface Div.) | Tel:   (0223) 66343 x4825  |
|Betjeman House                         |                            |
|104 Hills Road                         | +------------------------+ |
|Cambridge CB2 1LQ                      | |   Come on ye 'Well !   | |
|UK                                     | +------------------------+ |
+---------------------------------------+----------------------------+
| "I just couldn't find a single word to say,                        |
|  If I flattened all my vowels and I threw the 'R' away."           |
|  (The Proclaimers)                                                 |
+--------------------------------------------------------------------+
            
Submit corrections

comments powered by Disqus
↑ Back to top | Oldfield Mike Tabs for The Exorcist. Lyrics for acoustic guitar and electric guitar. Tablatures and chords are parodies/interpretations of the original songs. You may use it for private study, scholarship, research or language learning purposes only