» » »

No Mans Land Tabs (ver.2)

Artists:  A B C D E F G H I J K L M N O P Q R S T U V W X Y Z # 

No Mans Land Tabs (ver.2)

Oldfield Mike
Rating:
0/5 (0 votes)

Hard to play? Try these video lessons and learn fast.
                
The best song in that average album, but very easy if you play it along the CD

Beginning of the song (which is actually played by synths, but here arranged for guitar):

e|-------------------------------|
B|-------------------------------|
G|-------------------------------|
D|-----9-10-9-7-9------9-7-5-7-9-|
A|7--7------------7--7-----------|
E|-------------------------------|
...And that's all for the beginning! (you can play it almost all along the song if you add one octave to the tab above, simply adding 12 frets to those numbers)


Now, the solos.
The first one:
e|--------------------------------------------------------|
B|--------------------------------------------------------|
G|------9-11b9h11--9-11/\--11/12\11-9-11------------------|
D|-----9---------------------------------9h10-9--7-9--7h9-|
A|7---9---------------------------------------------------|
E|--------------------------------------------------------|


e|--------------------------------------------------------|
B|--------------------------------------------------------|
G|------9-11b9h11--9-11/\--11/12\11-9-11--12-11~----------|
D|-----9--------------------------------------------------|
A|7---9---------------------------------------------------|
E|--------------------------------------------------------|


The second one:
e|--1010------------------------------------------------------|
B|12------13-12-10-12/13\12-10-12/13\13---------10------------|
G|--------------------------------------9-11-12-----7-9-11/\--|
D|------------------------------------------------------------|
A|------------------------------------------------------------|
E|------------------------------------------------------------|
...This one repeated a lot of times with some variations

Enjoy this song! I love playing it!
            
Hard to play? Try these video lessons and learn fast. | Correct




comments powered by Disqus
↑ Back to top | Tablatures and chords are parodies/interpretations of the original songs. You may use it for private study, scholarship, research or language learning purposes only