» » »

Old Crow Medicine Show, Worried Mary Tabs (ver.1)

Artists:  A B C D E F G H I J K L M N O P Q R S T U V W X Y Z # 

Worried Mary Tabs (ver.1)

Old Crow Medicine Show Tabs
Rating:
0/5 (0 votes)
Worried Mary lessons Tabs too difficult? Try these video lessons and learn fast
                Band: Old Crow Medicine Show

This song is of course on the banjo but there wasn't a choice for it.
It is on a classic 5-string banjo in Open D tuning. To get there from the standard Open 
G tuning do this:

D
B - down a whole step to A
G - down half a step to F#
D
G - down half a step to F#

Resulting in:

D
A
F#
D
F#

Anyways, here goes. Clawhammer style!

D |-0~~~-|
A |-0~~~-|
F#|-0~~~-|
D |-0~~~-|
F#|-0~~~-|

Then there's basically 2 parts to this song:

Part I

D |-2h4-4---4---2---0---0------------|---------0------------------------|
A |-------------------------0---0----|-0h2-2-------2---0---0------------|
F#|----------------------------------|-------------------------0---0----|
D |----------------------------------|----------------------------------|
F#|-------0-------0-------0-------0--|-------0-------0-------0-------0--|

D |---------0------------------------|----------------------------------|
A |-0h2-2-------2---0---0------------|----------------------------------|
F#|-------------------------0--------|-0---0----------------------------|
D |-----------------------------2----|---------0h2-2---0---0---0---2----|
F#|-------0---0---0-------0-------0--|-------0-------0-------0-------0--|

D |----------------------------------|---------------------0~------0----|
A |----------------------------------|---------------------2~-----------|
F#|-0---0----------------------------|-0---0---1---0---1---1~-----------|
D |---------2---2---0---0---0h2-2----|----------------------------------|
F#|-------0-------0-------0-------0--|-------0-------0---------------0--|

D |-2h4-4---2---2---0---0------------|---------------------0~-----------|
A |-------------------------0---0----|-2---0---------------0~-----------|
F#|----------------------------------|---------1p0---------0~-----------|
D |----------------------------------|-------------2---0---0~-----------|
F#|-------0-------0-------0-------0--|-------0-------------0~-----------|

Part II

D |-2h4-4---4---4---7---7---7---9~---|-----9---9---7---4---4---4---7~---|
A |----------------------------------|----------------------------------|
F#|----------------------------------|----------------------------------|
D |----------------------------------|----------------------------------|
F#|-------0-------0-------0---0------|-------0---0---0-------0----------|

D |-----4---2---0---2---4---2---0----|---------0-------0---0---0---0----|
A |----------------------------------|-0h2-2-------2--------------------|
F#|----------------------------------|----------------------------------|
D |----------------------------------|----------------------------------|
F#|-------0---0---0---0---0---0---0--|-------0-------0-------0-------0--|

D |-2h4-4---4---4---7---7---7---9~---|-----9---9---7---4---4---4---7~---|
A |----------------------------------|----------------------------------|
F#|----------------------------------|----------------------------------|
D |----------------------------------|----------------------------------|
F#|-------0-------0-------0---0------|-------0---0---0-------0----------|

D |-----4---2---0---2---4---2---0----|---------0-------0---0------------|
A |----------------------------------|-0h2-2-------2-----------0---0----|
F#|----------------------------------|----------------------------------|
D |----------------------------------|----------------------------------|
F#|-------0---0---0---0---0---0---0--|-------0-------0-------0-------0--|

D |---------0-------0---0------------|---------------------0~------0----|
A |-0h2-2-------2-----------0---0----|-2p0-0---------------2~-----------|
F#|----------------------------------|---------1---0---1---1~-----------|
D |----------------------------------|----------------------------------|
F#|-------0-------0-------0-------0--|-------0---0---0---------------0--|

D |-4---4---2---2---0---0------------|---------------------0~-----------|
A |-------------------------0---0----|-2---0---------------0~-----------|
F#|----------------------------------|---------1p0---------0~-----------|
D |----------------------------------|-------------2---0---0~-----------|
F#|-------0-------0-------0-------0--|-------0-------------0~-----------|

Something along those lines. ENJOY!

Key:

~ - Let Ring
h - Hammer On
p - Pull Off
            

comments powered by Disqus
↑ Back to top | Old Crow Medicine Show Tabs for Worried Mary. Lyrics for acoustic guitar and electric guitar. Tablatures and chords are parodies/interpretations of the original songs. You may use it for private study, scholarship, research or language learning purposes only