» » »

Flower Faces Chords (ver.1)

Artists:  A B C D E F G H I J K L M N O P Q R S T U V W X Y Z # 

Flower Faces Chords (ver.1)

Old Canes
Rating:
0/5 (0 votes)

Hard to play? Try these video lessons and learn fast.
                
Capo on 4th fret to play along with the album.  All chords relative to the capo.

Intro/Verse (0:00 - 0:43)

"This is for the times we had, you were dancing and I was sad."

    Em  G  C
e----0--0--0-|
b----0--3--1-|
g----0--0--0-|
d----2--0--2-|
a----2--0--3-|
e----0--2--x-|

Chorus (0:43 - 0:56)

"Turn your flower faces up, the light is shining down on you."
    Am  G
e----0--3-|
b----1--0-|
g----2--0-|
d----2--0-|
a----0--2-|
e----0--3-|

Verse 2 (0:57 - 1:27)

    Em  G  C
e----0--0--0-|
b----0--3--1-|
g----0--0--0-|
d----2--0--2-|
a----2--0--3-|
e----0--2--x-|

Chorus 2 (1:28 - 1:33)

"Turn your flower faces up, the light is shining down on you."

*You do not play the G chord here, it goes right back to the verse

    Am
e----0--|
b----1--|
g----2--|
d----2--|
a----0--|
e----0--|

Verse x2 (1:34 - 1:40)

    Em  G  C
e----0--0--0-|
b----0--3--1-|
g----0--0--0-|
d----2--0--2-|
a----2--0--3-|
e----0--2--x-|

Chorus (1:41 - 1:53)

    Am  G
e----0--3--3/8-8-8-8-8-8-|
b----1--0----------------|
g----2--0----------------|
d----2--0----------------|
a----0--2----------------|
e----0--3----------------|

Repeat Verse a bunch of times then this outro:  (2:30 - 3:40)

"You know that I love you and would do anything."
    Am  Em C  G
e----0--0--0--3-|
b----1--0--1--0-|
g----2--0--0--0-|
d----2--2--2--0-|
a----0--2--3--2-|
e----0--0--x--3-|


A good song off the Old Canes album Feral Harmonic.  Easy song.  I put the times you're 
to be playing the progressions next to each one.  Any suggestions/lyrics, message me.  
and good luck.
            
Hard to play? Try these video lessons and learn fast. | Correct




comments powered by Disqus
↑ Back to top | Tablatures and chords are parodies/interpretations of the original songs. You may use it for private study, scholarship, research or language learning purposes only