>
 >
Question 1

Question 1 Chords

Old 97s - Question 1 chords, tabs, tablatures, lyrics

Guitar lessons | Add/correct | Request | Top 50 tabs Artists:  A B C D E F G H I J K L M N O P Q R S T U V W X Y Z 0-9

Question 1 Chords – Old 97s

CD, Sheet music, Poster

Do you like Question 1? Share with your friends now
ChordsChords v2Chords v3Chords v4TabsTabs v2Tabs v3Ukulele
=======================================================================
Band: Old 97s
Tuning: DGCFAd


h = hammer on
p = pull off
^ = bend
r = release
t = tap
~ = let it ring
* = pinch harmonics
/ = slide up
\ = slide down
. = palm mute
+ = harmonic
v = vibrato


=======================================================================

Key:
 
     D      D/C#     Bm      G      G/f#    G/E      A       C   
d|---2---|---2---|---2---|---3---|---3---|---3---|---0---|---0---|
A|---3---|---3---|---3---|---3---|---3---|---3---|---2---|---1---|
F|---2---|---2---|---4---|---0---|---0---|---0---|---2---|---0---|
C|---0---|---X---|---4---|---0---|---0---|---2---|---2---|---2---|
G|-------|---4---|---2---|---2---|---2---|---2---|---0---|---3---|
D|-------|-------|-------|---3---|---2---|---0---|-------|-------|

    D/A    Rhythm Fig. I    Rhythm Fig. II   Rhythm Fig. III
d|-------|----------------|----------------|--0-------------|
A|---3---|----------------|----------------|--1-------------|
F|---2---|----------------|----------------|--0-------0-----|
C|---0---|----------------|----------------|--2---0h2-------|
G|---0---|---0--0--2--0---|---0--0--2--4---|--3-------------|
D|-------|----------------|----------------|----------------|

=======================================================================

Intro: Guitar I

         D               D/C#              Bm         Rhythm Fig. I
d|----2-2-2-2-2-2-|----2-2-2-2-2-2-|----2-2-2-2-2-2-|----------------|
A|----3-3-3-3-3-3-|----3-3-3-3-3-3-|----3-3-3-3-3-3-|----------------|
F|----2-2-2-2-2-2-|----2-2-2-2-2-2-|----4-4-4-4-4-4-|----------------|
C|--0-0-0-0-0-0-0-|----X-X-X-X-X-X-|----4-4-4-4-4-4-|----------------|
G|----------------|--4-4-4-4-4-4-4-|--2-2-2-2-2-2-2-|---0--0--2--0---|
D|----------------|----------------|----------------|----------------|

         G               G/f#             G/E         Rhythm Fig. II
d|----3-3-3-3-3-3-|----3-3-3-3-3-3-|----3-3-3-3-3-3-|----------------|
A|----3-3-3-3-3-3-|----3-3-3-3-3-3-|----3-3-3-3-3-3-|----------------|
F|----0-0-0-0-0-0-|----0-0-0-0-0-0-|----0-0-0-0-0-0-|----------------|
C|----0-0-0-0-0-0-|----0-0-0-0-0-0-|----2-2-2-2-2-2-|----------------|
G|----2-2-2-2-2-2-|----2-2-2-2-2-2-|----2-2-2-2-2-2-|---0--0--2--4---|
D|--3-3-3-3-3-3-3-|--2-2-2-2-2-2-2-|--0-0-0-0-0-0-0-|----------------|

=======================================================================

Verse I :

D    D/C#             Bm
 She woke from her dream
D/A               G
 Her head was on fire
G/F#             G/E     R.Fig.II
 Why was he so nervous?

D        D/C#         Bm
 He took her to the park
D/A               G
 She crossed her arms
G/F#               G/E    R.Fig.I
 And lowered her eyelids

=======================================================================

Chorus:
G           A              D       C
 Someday somebody's gonna ask you
G            A                   D
 A question that you should say yes to
C                  G
 Once in your life
Bm            G           R.Fig.II
 Baby tonight, I've got a question for you

=======================================================================

Interlude: Same as intro

=======================================================================

Verse II:

D    D/C#       Bm
 She had no idea
D/A              G
 She started to cry
G/F#           G/E      R.Fig.II
 She said in a good way

D        D/C#          Bm
 He took her by the hand
D/A               G
 Walked her back home
G/F#            G/E     R.Fig.I
 They took the long way

=======================================================================

Chorus:

G           A              D       C  R.Fig.III
 Someday somebody's gonna ask you
G            A                   D
 A question that you should say yes to
C                  G
 Once in your life
Bm            G           R.Fig.II
 Baby tonight, I've got a question for you

=======================================================================

Outro:

D, D/C#, Bm, D/A, 

G            A
 I've got a question for you

D, D/C#, Bm, D/A, G, A, D

=======================================================================





Comments


Popular Old 97s tabs & chords
W I F E Chords
Wish The Worst Chords
Barrier Reef Ukulele
In The Satellite Rides A Star Ukulele
Salome Ukulele
Singular Girl Ukulele
The New Kid Ukulele
Valentine Ukulele
Valium Waltz Ukulele
Weightless Ukulele


Song lyrics



↑ Back to top | Tablatures and chords are parodies/interpretations of the original songs. You may use it for private study, scholarship, research or language learning purposes only
© 2014 AZChords.com Contact us | Privacy policy | DMCA | Add/correct tabs | Request tabs | Top 50 tabs