» » »

Okoume, Dit Moi Pas Ca Bass tabs (ver.1)

Artists:  A B C D E F G H I J K L M N O P Q R S T U V W X Y Z # 

Dit Moi Pas Ca Bass tabs (ver.1)

Okoume Tabs
 Rating:
4.2/5 (5 votes)
Dit Moi Pas Ca lessons Tabs too difficult? Try these video lessons and learn fast
                                  dit moi pas ca, tab, by Okoume

               tranduit en tablature par Steve Morin

    tuning     RE, LA, RE, SOL
 |       |       |       |        |       |       |       |        
|--------------------------------|--------------------------------|
|--------------------------------|--------------------------------|
|--------------------------------|--------------0-----------------|
|0---0-----0-4---5---5-----0-5---|0---0-----0-4---5---5-----0-5---|
 
 |       |       |       |        |       |       |       |        
|--------------------------------|--------------------------------|
|--------------------------------|--------------------------------|
|--------------------------------|--------------0-----------------|
|0---0-----0-4---5---5-----0-5---|0---0-----0-4---5---5-----0-5---|
 
 |       |       |       |        |       |       |       |        
|--------------------------------|--------------------------------|
|--------------------------------|--------------------------------|
|--------------------------------|--------------0-----------------|
|0---0-----0-4---5---5-----0-5---|0---0-----0-4---5---5-----0-5---|
 
 |       |       |       |        |       |       |       |        
|--------------------------------|--------------------------------|
|--------------------------------|--------------------------------|
|--------------------------------|--------------0-----------------|
|0---0-----0-4---5---5-----0-5---|0---0-----0-4---5---5-----0-5---|
 
 |       |       |       |        |       |       |       |        
|--------------------------------|--------------------------------|
|--------------------------------|--------------------------------|
|------------------------0-------|--------------------------------|
|7-----------7---7---2-------2---|5---5---5---5---5---5---5---4---|
 
 |       |       |       |        |       |       |       |        
|--------------------------------|--------------------------------|
|--------------------------------|--------------------------------|
|--------------------------------|--------------0-----------------|
|0---0-----0-4---5---5-----0-5---|0---0-----0-4---5---5-------7---|
 
 |       |       |       |        |       |       |       |        
|--------------------------------|--------------------------------|
|--------------------------------|--------------------------------|
|--------------------------------|--------------------------------|
|9---9-------9-------9---9---9---|7---7-------7-------7---7---7---|
 
 |       |       |       |        |       |       |       |        
|--------------------------------|--------------------------------|
|--------------------------------|--------------------------------|
|--------------------------------|--------------------------------|
|5---5-------5-------5-5-5---5-5-|5---5-------5-------5-5-5---5-5-|
 
 |       |       |       |        |       |       |       |        
|--------------------------------|--------------------------------|
|--------------------------------|--------------------------------|
|--------------------------------|--------------------------------|
|9---9-------9-------9---9---9---|7---7-------7-------7---7---7---|
 
 |       |       |       |        |       |       |       |        
|--------------------------------|--------------------------------|
|--------------------------------|--------------------------------|
|--------------------------------|--------------------------------|
|5---5-------5-------5-5-5---0---|5-------------------------------|
 
 |       |       |       |        |       |       |       |        
|--------------------------------|--------------------------------|
|--------------------------------|--------------------------------|
|--------------------------------|--------------0-----------------|
|0---0-----0-4---5---5-----0-5---|0---0-----0-4---5---5-----0-5---|
 
 |       |       |       |        |       |       |       |        
|--------------------------------|--------------------------------|
|--------------------------------|--------------------------------|
|--------------------------------|--------------0-----------------|
|0---0-----0-4---5---5-----0-5---|0---0-----0-4---5---5-----0-5---|
 
 |       |       |       |        |       |       |       |        
|--------------------------------|--------------------------------|
|--------------------------------|--------------------------------|
|--------------------------------|--------------0-----------------|
|0---0-----0-4---5---5-----0-5---|0---0-----0-4---5---5-----0-5---|
 
 |       |       |       |        |       |       |       |        
|--------------------------------|--------------------------------|
|--------------------------------|--------------------------------|
|--------------------------------|--------------0-----------------|
|0---0-----0-4---5---5-----0-5---|0---0-----0-4---5---5-----0-5---|
 
 |       |       |       |        |       |       |       |        
|--------------------------------|--------------------------------|
|--------------------------------|--------------------------------|
|--------------------------------|--------------0-----------------|
|0---0-----0-4---5---5-----0-5---|0---0-----0-4---5---5-----0-5---|
 
 |       |       |       |        |       |       |       |        
|--------------------------------|--------------------------------|
|--------------------------------|--------------------------------|
|--------------------------------|--------------0-----------------|
|0---0-----0-4---5---5-----0-5---|0---0-----0-4---5---5-----0-5---|
 
 |       |       |       |        |       |       |       |        
|--------------------------------|--------------------------------|
|--------------------------------|--------------------------------|
|------------------------0-------|--------------------------------|
|7-----------7---7---0-2-----0-2-|5---5---5---5---5---5---5---4---|
 
 |       |       |       |        |       |       |       |        
|--------------------------------|--------------------------------|
|--------------------------------|--------------------------------|
|--------------------------------|--------------0-----------------|
|0---0-----0-4---5---5-----0-5---|0---0-----0-4---5---5-------7---|
 
 |       |       |       |        |       |       |       |        
|--------------------------------|--------------------------------|
|--------------------------------|--------------------------------|
|--------------------------------|--------------------------------|
|9---9-------9-------9---9---9---|7---7-------7-------7---7---7---|
 
 |       |       |       |        |       |       |       |        
|--------------------------------|--------------------------------|
|--------------------------------|--------------------------------|
|--------------------------------|--------------------------------|
|5---5-------5-------5-5-5---5-5-|5---5-------5-------5-5-5---5-5-|
 
 |       |       |       |        |       |       |       |        
|--------------------------------|--------------------------------|
|--------------------------------|--------------------------------|
|--------------------------------|--------------------------------|
|9---9-------9-------9---9---9---|7---7-------7-------7---7---7---|
 
 |       |       |       |        |       |       |       |        
|--------------------------------|--------------------------------|
|--------------------------------|--------------------------------|
|--------------------------------|--------------------------------|
|5---5-------5-------5-5-5---0---|5-------------------------------|
 
 |       |       |       |        |       |       |       |        
|--------------------------------|--------------------------------|
|--------------------------------|--------------------------------|
|--------------------------------|--------------0-----------------|
|0---0-----0-4---5---5-----0-5---|0---0-----0-4---5---5-----0-5---|
 
 |       |       |       |        |       |       |       |        
|--------------------------------|--------------------------------|
|--------------------------------|--------------------------------|
|--------------------------------|--------------0-----------------|
|0---0-----0-4---5---5-----0-5---|0---0-----0-4---5---5-----0-5---|
 
 |       |       |       |        |       |       |       |        
|--------------------------------|--------------------------------|
|--------------------------------|--------------------------------|
|--------------------------------|--------------0-----------------|
|0---0-----0-4---5---5-----0-5---|0---0-----0-4---5---5-----0-5---|
 
 |       |       |       |        |       |       |       |        
|--------------------------------|--------------------------------|
|--------------------------------|--------------------------------|
|--------------------------------|--------------0-----------------|
|0---0-----0-4---5---5-----0-5---|0---0-----0-4---5---5-----0-5---|
 
 |       |       |       |        |       |       |       |        
|--------------------------------|--------------------------------|
|--------------------------------|--------------------------------|
|------------------------0---2-0-|--------------------------------|
|7---7-------7---7---0-2---------|5---5---5---5---5---5---5---4---|
 
 |       |       |       |        |       |       |       |        
|--------------------------------|--------------------------------|
|--------------------------------|--------------------------------|
|--------------------------------|--------------0-----------------|
|0---0-----0-4---5---5-----0-5---|0---0-----0-4---5---5-------4---|
 
 |       |       |       |        |       |       |       |        
|--------------------------------|--------------------------------|
|--------------------------------|--------------------------------|
|--------------------------------|--------------------------------|
|7---7-------7---7---7/9-7---0-2-|5---5---5---5---5---5---5---4---|
 
 |       |       |       |        |       |       |       |        
|--------------------------------|--------------------------------|
|--------------------------------|--------------------------------|
|5---5---5---5---5---5---5---5---|5---5---5---5---5---5---5---5---|
|--------------------------------|--------------------------------|
 
 |       |       |       |        |       |       |       |        
|--------------------------------|--------------------------------|
|--------------------------------|--------------------------------|
|5---5---5---5---5---5---5---5---|5---5---5---5---5---5---5---0-2-|
|--------------------------------|--------------------------------|
 
 |       |       |       |        |       |       |       |        
|--------------------------------|--------------------------------|
|--------------------------------|--------------------------------|
|5---5---5---5---5---5---5---5---|5---5---5---5---5---5---5---5---|
|--------------------------------|--------------------------------|
 
 |       |       |       |        |       |       |       |        
|--------------------------------|--------------------------------|
|--------------------------------|--------------------------------|
|5---5---5---5---5---5---5---5---|5---5---5---5---5---5---5---0-2-|
|--------------------------------|--------------------------------|
 
 |       |       |       |        |       |       |       |        
|--------------------------------|--------------------------------|
|--------------------------------|--------------------------------|
|5---5---5---5---5---5---5---5---|5---5---5---5---5---5---5---0-2-|
|--------------------------------|--------------------------------|
 
 |       |       |       |        |       |       |       |        
|--------------------------------|--------------------------------|
|--------------------------------|--------------------------------|
|5---5---5---5---5---5---5---5---|5---5---5---5---5---5---5---0-2-|
|--------------------------------|--------------------------------|
 
 |       |       |       |        |       |       |       |        
|--------------------------------|--------------------------------|
|--------------------------------|--------------------------------|
|5---5---5---5---5---5---5---0-2-|5---5---5---5---5---5---5---0-2-|
|--------------------------------|--------------------------------|
 
 |       |       |       |        |       |       |       |        
|--------------------------------|--------------------------------|
|--------------------------------|--------------------------------|
|5---5---5---5---5---5---5---0-2-|5---5---5---5---5---5---5---0-2-|
|--------------------------------|--------------------------------|
 
 |       |       |       |        |       |       |       |        
|--------------------------------|--------------------------------|
|----------------4---4---4-------|----------------6-------6-------|
|5---5---5---3/5-------------0-2-|5---5---5---3/5-----8-------8---|
|--------------------------------|--------------------------------|
 
 |       |       |       |        |       |       |       |        
|--------------------------------|--------------------------------|
|----------------7-------7-------|--------------------------------|
|5---5---5---3/5-----9-------9---|5---5---5---0-2-4---5---5-3-0---|
|--------------------------------|--------------------------------|
 
 |       |       |       |        |       |       |       |        
|--------------------------------|--------------------------------|
|----------------4-4-----4-4-----|----------------6-6-----6-6-----|
|5---5---5---3/5-----5-5-----5---|5---5---5---3/5-----8-8-----8---|
|--------------------------------|--------------------------------|
 
 |       |       |       |        |       |       |       |        
|--------------------------------|--------------------------------|
|----------------7-7-----7-7-----|--------------------------------|
|5---5---5---3/5-----9-9-----9---|5---5---5---0-2-4-4-5-5-5-3-0---|
|--------------------------------|--------------------------------|
 
 |       |       |       |        |       |       |       |        
|--------------------------------|--------------------------------|
|--------------------------------|--------------------------------|
|4/5-5-5-5-5-5-5-5-5-5-5-5-2-0---|4/5-5-5-5-5-5-5-5-5-5-5-5-2-0---|
|--------------------------------|--------------------------------|
 
 |       |       |       |        |       |       |       |        
|--------------------------------|--------------------------------|
|--------------------------------|--------------------------------|
|4/5-5-5-5-5-5-5-5-5-5-5-5-2-0---|4/5-5-5-5-5-5-5-5-3-0-3-0-------|
|--------------------------------|--------------------------5-3-3-|
 
 |       |       |       |        |       |       |       |        
|--------------------------------|--------------------------------|
|--------------------------------|--------------------------------|
|------------0-2-3-5-5-5-5-3-0---|------------0-2-3-5-5-5-5-3-0---|
|0---0---0-----------------------|0---0---0-----------------------|
 
 |       |       |       |        |       |       |       |        
|--------------------------------|--------------------------------|
|--------------------------------|--------------------------------|
|------------0-2-3-5-5-5-5-3-0---|------------0-2-3-5-5-5-5-3-0---|
|0---0---0-----------------------|0---0---0-----------------------|
 
 |       |       |       |        |       |       |       |        
|--------------------------------|--------------------------------|
|--------------------------------|--------------------------------|
|--------------------------------|--------------------------------|
|0---0---0---0---0---0---0---0---|0---0---0---0---0---0---0---0---|
 
 |       |       |       |        |       |       |       |        
|--------------------------------|--------------------------------|
|--------------------------------|--------------------------------|
|--------------------------------|--------------------------------|
|0---0---0---0---0---0---0---0---|0-------------------------------|
 
            
Submit corrections

comments powered by Disqus
↑ Back to top | Okoume Bass for Dit Moi Pas Ca. Lyrics for acoustic guitar and electric guitar. Tablatures and chords are parodies/interpretations of the original songs. You may use it for private study, scholarship, research or language learning purposes only