» » »

Song Of Our So-called Friend Bass tabs (ver.1)

Artists:  A B C D E F G H I J K L M N O P Q R S T U V W X Y Z # 

Song Of Our So-called Friend Bass tabs (ver.1)

Okkervil River
Rating:
0/5 (0 votes)

Hard to play? Try these video lessons and learn fast.
                -------------------------------------------------------------------------------
                 Okkervil River - Song of Our So-Called Friend
-------------------------------------------------------------------------------


Legend:

W    Whole note
H    Half note
Q    Quarter note
E    Eight note
.    Dotted note
[]   Rest


Remember when our so-called friend...: No bass.

Loving is as long does...
    Q   Q   Q   Q      Q   Q   H          H.        Q       W
G|--2---1-----------|------------------|-----------------|--------------------|
D|----------4---2---|------------------|-----------------|--0-----------------|
A|------------------|--2---4---2-------|------------4----|--------------------|
E|------------------|------------------|--2--------------|--------------------|

Your face's falling tears... 
    Q   Q   Q   Q      Q   Q   Q   Q      Q.   E Q   Q      Q   Q   Q   Q
G|------------------|------------------|-------------2---|--------------------|
D|------2-------2---|------------------|-------0-2-------|--0-----------------|
A|--0-------0-------|--2---4---2---0---|--4--------------|------4---2---0-----|
E|------------------|------------------|-----------------|--------------------|

There's no room in your heart...
    W                  W                  W                 W
G|------------------|------------------|-----------------|--------------------|
D|------------------|--0---------------|-----------------|--0-----------------|
A|------------------|------------------|--2--------------|--------------------|
E|--2---------------|------------------|-----------------|--------------------|

Although I had started to think...
    Q   Q   Q   Q      Q   Q   Q   Q      H   [E] E E E     W
G|--2---1-----------|------------------|-----------------|--------------------|
D|----------4---2---|------------------|--2-------2-0----|--------------------|
A|------------------|--2---4---2---0---|--------------4--|--0-----------------|
E|------------------|------------------|-----------------|--------------------|

La la la...
    E Q   E E E E E    Q.    E Q   Q      H      Q   E E    Q.    E E E Q
G|----2-------------|------------------|---------2-------|--------------------|
D|------------0-2-4-|------------------|-------------4-2-|--0-------0-2-2-----|
A|--0-----0-4-------|--2-----0-2---2---|-----------------|--------4-----------|
E|------------------|------------------|--2--------------|--------------------|

    Q.    E Q   Q      Q.    E Q   Q      Q   Q   Q   Q     H    Q  Q     W
G|------------------|------------------|------2---1------|-------------|------|
D|------------------|------------------|--------------4--|--0----0-----|------|
A|--------------0---|--2-----0-2---0---|-----------------|----------4--|------|
E|--0-----2-4-------|------------------|--2--------------|-------------|---2--|


So wake up...: No bass.

So proceed out the door...

    Q   Q   Q   Q      Q   Q   Q   Q      H.         Q      W   
G|------------------|------------------|-----------------|--------------------|
D|------2-------2---|------------------|-------------4---|--0-----------------|
A|--0-------0-------|--2---4---2---0---|-----------------|--------------------|
E|------------------|------------------|--2--------------|--------------------|

Sixty days of trips and stays...
    Q   Q   Q   Q      Q   Q   Q   Q      Q.   E Q   Q      Q   Q   Q   Q
G|------------------|------------------|-------------2---|--------------------|
D|------2-------2---|------------------|-------0-2-------|--0-----------------|
A|--0-------0-------|--2---4---2---0---|--4--------------|------4---2---0-----|
E|------------------|------------------|-----------------|--------------------|

Although I put my lips to your face...
    W                  W                  W                 W
G|------------------|------------------|-----------------|--------------------|
D|------------------|--0---------------|-----------------|--0-----------------|
A|------------------|------------------|--2--------------|--------------------|
E|--2---------------|------------------|-----------------|--------------------|

Although my heart started to race...
    Q   Q   Q   Q      Q   Q   Q   Q      H   [E] E E E     H       H
G|--2---1-----------|------------------|-----------------|----------2---------|
D|----------4---2---|------------------|--2-------2-0----|--------------------|
A|------------------|--2---4---2---0---|--------------4--|--0-----------------|
E|------------------|------------------|-----------------|--------------------|

Outro

    Q.    E E E E E    Q.    E Q   Q      Q.   E Q   E E    Q.    E E E Q
G|------------------|------------------|-------1-2-------|--------------------|
D|------------0-2-4-|------------------|-------------4-2-|--0-------0-2-2-----|
A|--0-----0-4-------|--2-----0-2---0---|-----------------|--------4-----------|
E|------------------|------------------|--2--------------|--------------------|

    E Q   E E E Q      E E E E Q   E E    H   Q   Q      Q.  E E E E E     W
G|------------------|------------------|------2---1---|-----------------|-----|
D|------------0-2---|------------------|--------------|--0-----0-2-0----|-----|
A|--0-4---0-4-------|--2-2-2-0-2---4-2-|--------------|------4-------4--|--0--|
E|------------------|------------------|--2-----------|-----------------|-----|
            
Hard to play? Try these video lessons and learn fast. | Correct




comments powered by Disqus
↑ Back to top | Tablatures and chords are parodies/interpretations of the original songs. You may use it for private study, scholarship, research or language learning purposes only