» » »

Okkervil River, Song About A Star Bass tabs (ver.1)

Artists:  A B C D E F G H I J K L M N O P Q R S T U V W X Y Z # 

Song About A Star Bass tabs (ver.1)

Okkervil River Tabs
Rating:
0/5 (0 votes)
Song About A Star lessons Tabs too difficult? Try these video lessons and learn fast
                SONG ABOUT A STAR
OKKERVIL RIVER

        VERSE: (bass starts at 0:06)
G|---------------------------------------------------------------------------|
D|--------------4-2-2-4-4-4-2--2-4-2---------------------0--0-0-0-0----------|
A|-0-00-00-00-2----------------------4-22-----2--2-2-2-4---------------------|
E|-----------------------------------------22--------------------------------|

G|---------------------------------------------------------------------------|
D|-2-0------------------------4-22----22-4-2----------------------0--0-0-0-0-|
A|-----4-2-0-----0-00-00-00-2------22--------4-22------22-2-2-2-4------------|
E|-----------4-------------------------------------22------------------------|

G|---------------------------------------------------------------------------|
D|-2-2-2-2-2-2---------------------------------------------------------------|
A|---------------------------------------------------------------------------|
E|---------------------------------------------------------------------------|


        CHORUS:
G|---------------------------------------------------------------------------|
D|-----0---2-2-2-2-2-2--4--------------0-0-0-0-0-0------0---2-2-2-2-4-2------|
A|---2---0---------------2-2-2-2-2-2--4---------------2---0------------------|
E|-2------------------------------------------------2------------------------|

G|---------------------------------------------------------------------------|
D|---------------------------------------------------------------------------|
A|--2-2-2-2-2-2-2-2-2-2------------------------------------------------------|
E|---------------------------------------------------------------------------|


        BRIDGE:
G|---------------------------------------------------------------------------|
D|--------2-2-2--0-0-0---------------4-4-4--2-2-2--0-0-0--4-4-4--------------|
A|---------------------2-2-2--0-0-0------------------------------0-0-0-------|
E|-2-2-2---------------------------------------------------------------------|

G|---------------------------------------------------------------------------|
D|-0-0-0---------4-4-4-4-4-4-4--------000-----------------000----------------|
A|--------2-2-2----------------2-2-2------444-222--2-2-2------444-222--------|
E|---------------------------------------------------------------------------|



VERSE
CHORUS
VERSE
CHORUS
BRIDGE
VERSE x5
CHORUS
            
Submit corrections

comments powered by Disqus
↑ Back to top | Okkervil River Bass for Song About A Star. Lyrics for acoustic guitar and electric guitar. Tablatures and chords are parodies/interpretations of the original songs. You may use it for private study, scholarship, research or language learning purposes only