» » »

Okkervil River, Another Radio Song Bass tabs (ver.1)

Artists:  A B C D E F G H I J K L M N O P Q R S T U V W X Y Z # 

Another Radio Song Bass tabs (ver.1)

Okkervil River Tabs
Rating:
0/5 (0 votes)
Hard to play? Try these video lessons and learn fast.
                Hey there. It's my first bass tab and I tried to figure out the bass tab of this song 
none existed on the internet. I tried my best to tab it, it probably isn't perfect, but I 
it is pretty accurate.
Please, don't hesitate to rate and comment, modifications are welcome.
Marie

P-S: As to the rythm, it's too complicated to put it in a tab, but listen carefully to 
song and try to figure it out. If you need explanations or if you've got question 


1.00
G----------|----------|---------|----------|
D----------|----------|---------|----------|
A-0----00--|3-----33--|7----77--|-0----00--|
E----------|----------|---------|----------|

G----------|----------|---------|-----------|
D----------|----------|---------|-----------|
A-0----00--|3-----33--|7----77--|-0----00-7\|
E----------|----------|---------|-----------|

1.23
G --------|--------|--------|--------|
D --------|--------|--------|--------|
A 33333333|--2-0000|33333333|--2-0000|
E --------|3-------|--------|3-------|

G --------|--------|---------|---------|
D --------|--------|---------|---------|
A 33333333|--------|8---7----|000000002|
E --------|33333333|-------3-|---------|

G --------|--------|--------|---------|
D --------|--------|--------|---------|
A 33333333|--------|88888888|888888888|
E --------|33333333|--------|---------|

1.58
G --------|--------|--------|----00000|
D --------|-------0|2222222-|---------|
A 00000002|3333333-|-------0|---------|
E --------|--------|--------|1111-----|

G --------|--------|--------|----00000|
D --------|-------0|22222222|3333-----|
A 00000002|3333333-|--------|---------|
E --------|--------|--------|---------|

2.20
G --------|--------|--------|----0----|
D --------|-------0|2------2|3--------|
A 0-----02|3-----3-|--------|---------|
E --------|--------|--------|---------|

2.31
G 2-------|--------|--------|----0----|
D --------|-------0|2------2|3--------|
A ------02|3-----3-|--------|---------|
E --------|--------|--------|---------| repeat til 2.42

2.42
G 2-------|--------|--------|----00000|
D --------|-------0|22222222|3333-----|
A -0000002|3333333-|--------|---------|
E --------|--------|--------|---------| repeat til 3.06

3.06
G --------|--------|--------|----00000|
D --------|-------0|22222222|3333-----|
A 00000002|3333333-|--------|---------|
E --------|--------|--------|---------| repeat til 4.22

at 4.37:
G --------|
D --------|
A --2-----|
E 3-------|

This is it! Have fun!
            

comments powered by Disqus
↑ Back to top | Okkervil River Bass for Another Radio Song. Lyrics for acoustic guitar and electric guitar. Tablatures and chords are parodies/interpretations of the original songs. You may use it for private study, scholarship, research or language learning purposes only