>
 >
What To Do

What To Do Guitar Tabs

O.K. Go - What To Do chords, tabs, tablatures, lyrics

Guitar lessons | Add/correct | Request | Top 50 tabs Artists:  A B C D E F G H I J K L M N O P Q R S T U V W X Y Z 0-9

What To Do Guitar Tabs – O.K. Go

CD, Sheet music, Poster

Do you like What To Do? Share with your friends now
ChordsChords v2Chords v3TabsUkulele
Ok Go – What to do

Intro/ 1st verse
|-------------------------------------------------------------------------|
|-------------------------------------------------------------------------|
|-5-5----04-4-----3-3-------------/10-10----0--------5-5-555--------------| X3
|-5-5-----4-4-----3-3-----77-7----/10-10-----5-5-----5-5-555--5-5---------|
|-3-3-----2-2-----1-1-----77-7----/8--8------5-5-----3-3-353--5-5---------|
|-------------------------55-5---------------3-3--------------3-3---------|

Bridge (clean)
|---------------------------------|
|---------4--4-44-----------------|
|-5--5-55-4--4-44-3--3-33---------| X3 ……”Trumpets”
|-5--5-55-2--2-22-3--3-33-7-------|
|-3--3-33---------1--1-11-7-------|
|-------------------------5-------|

Before 2nd Verse
|-------------------------------------------------------------------------|
|-------------------------------------------------------------------------|
|-5-5----04-4-----3-3-------------/10-10----0--------5-5-555--------------|
|-5-5-----4-4-----3-3-----77-7----/10-10-----5-5-----5-5-555--5-5---------|
|-3-3-----2-2-----1-1-----77-7----/8--8------5-5-----3-3-353--5-5---------|
|-------------------------55-5---------------3-3--------------3-3---------|

Little Music with bass and drums in verse 2……

“La da da………”
|--------------------------------------------------------------------------|
|--------/4---4-4----------------------------------------------------------|
|-5---5-5/4---4-4-3---3-3---------10-10-10-10-10-10-10-10------------------| X2
|-5---5-5/2---2-2-3---3-3-7---7-7-10-10-10-10-10-10-10-10-5-5-5-5-5-5-5-5--|
|-3---3-3---------1---1-1-7---7-7-8--8--8--8--8--8--8—8---5-5-5-5-5-5-5-5--|
|-------------------------5---5-5-------------------------3-3-3-3-3-3-3-3--|

Changes to 3 beats

“what to doooo………”
|----------------------------------------------------|
|-------------------------------------4-4-4-------7--|
|-5-5-5-4-4-4-3-3-3-------5-5-5-4-4-4-4-4-4-5-5-5-7--|
|-5-5-5-4-4-4-3-3-3-7-7-7-5-5-5-4-4-4-2-2-2-5-5-5-5--|
|-3-3-3-2-2-2-1-1-1-7-7-7-3-3-3-2-2-2-------3-3-3----|
|-------------------5-5-5----------------------------|

Guitar 1 – Before 3rd Verse
|------3----------------------------------------------------------------------------|
|----5----0-------------------------------------------------------------------------|
|-----------5-5----04-4-----3-3-------------/10-10----0--------5-5-555--------------|
|-----------5-5-----4-4-----3-3-----77-7----/10-10-----5-5-----5-5-555--5-5---------|
|-----------3-3-----2-2-----1-1-----77-7----/8--8------5-5-----3-3-353--5-5---------|
|-----------------------------------55-5---------------3-3--------------3-3---------|


Guitar 2
|-0-3---------0-3--------0-3---------0-3---------0----------------0----------------|
|------0--1--------1-0--------0--------------------3--1------1-3---------0-3--0--1-|
|--------------------------------3--------3--2-----------1-----------0-------------|
|----------------------------------------------------------------------------------|
|----------------------------------------------------------------------------------|
|----------------------------------------------------------------------------------|


|------------------------|
|------------------------|
|-0-0-0-0-0-0-0-0--------|
|------------------------|
|------------------------|
|------------------------|


Little Music with bass and drums in verse 3……

|--------------------------------------------------------------------------|
|--------/4---4-4----------------------------------------------------------|
|-5---5-5/4---4-4-3---3-3---------10-10-10-10-10-10-10-10------------------| X2
|-5---5-5/2---2-2-3---3-3-7---7-7-10-10-10-10-10-10-10-10-5-5-5-5-5-5-5-5--|
|-3---3-3---------1---1-1-7---7-7-8--8--8--8--8--8--8—8---5-5-5-5-5-5-5-5--|
|-------------------------5---5-5-------------------------3-3-3-3-3-3-3-3--|

Changes to 3 beats

“what to doooo………”
|------------------------------------------------------------------------------|
|------------------------------------------------------------------------------|
|-5-5-5-4-4-4-3-3-3--------5-5-5-4-4-4-3-3-3--------5-5-5-4-4-4-3-3-3----------|
|-5-5-5-4-4-4-3-3-3-7-7-7--5-5-5-4-4-4-3-3-3-7-7-7--5-5-5-4-4-4-3-3-3-7-7-7----|
|-3-3-3-2-2-2-1-1-1-7-7-7--3-3-3-2-2-2-1-1-1-7-7-7--3-3-3-2-2-2-1-1-1-7-7-7----|
|-------------------5-5-5--------------------5-5-5--------------------5-5-5----|

|-----------------------------|
|--------------4-4-4-------7--|
|--5-5-5-4-4-4-4-4-4-5-5-5-7--|
|--5-5-5-4-4-4-2-2-2-5-5-5-5--|
|--3-3-3-2-2-2-------3-3-3----|
|-----------------------------|





Comments


Popular O.K. Go tabs & chords
Bye Bye Baby Bass Tabs
Do What You Want Bass Tabs
Theres A Fire Bass Tabs
Back From Kathmandu Chords
End Love 1 Chords
Oh Lately It's So Quiet Chords
Return Chords
Here It Goes Again 2 Tabs
A Million Ways Ukulele
This Too Shall Pass 2 Ukulele


Song lyrics



↑ Back to top | Tablatures and chords are parodies/interpretations of the original songs. You may use it for private study, scholarship, research or language learning purposes only
© 2014 AZChords.com Contact us | Privacy policy | DMCA | Add/correct tabs | Request tabs | Top 50 tabs