>
 >
Skyscrapers

Skyscrapers Guitar Tabs

O.K. Go - Skyscrapers chords, tabs, tablatures, lyrics

Guitar lessons | Add/correct | Request | Top 50 tabs Artists:  A B C D E F G H I J K L M N O P Q R S T U V W X Y Z 0-9

Skyscrapers Guitar Tabs – O.K. Go

CD, Sheet music, Poster

Do you like Skyscrapers? Share with your friends now
Bass TabsChordsChords v2TabsUkulele
Band: Ok Go
Duration: 04:38
Difficulty: Intermediate
Description: This tab is complete, if you do not understand any part, put the 
music to play and accompany the music.

-------------------------------------------------------------------------------
    00:30 - 00:36                     00:37 - 00:40                      
e|-------------------------|  |--------------------------------|
B|-------------------------|  |--------------------------------|
G|-------------------------|2x|----------------------------(9)-|
D|-14-14-12-12-------------|  |-14-14-12-12--------------------|
A|-------------14-14-12-10-|  |-------------14-14-12-10-9------|
E|-------------------------|  |--------------------------------|

Chorus:
                     01:00 - 01:11
e|-4/8-x-8--x-8--8/10-x-10-x-10-10/11-x-11-x-11/12-x-12-x-12--|
B|-4/8-x-8--x-8--8/10-x-10-x-10-10/11-x-12-x-11/12-x-12-x-12--|
G|-----x-9--x-9-------x-11-x-11-------x-11-x-------x-13-x-13--|
D|-----x-10-x-10------x-12-x-12--------------------x-14-x-14--|
A|------------------------------------------------------------|
E|------------------------------------------------------------|
                    01: - 01:12
e|-4/8-x-8--x-8--8/10-x-10-x-10-10/12-x-12-x-12-12\\\(0)-|
B|-4/8-x-8--x-8--8/10-x-10-x-10-10/12-x-12-x-12-12\\\(0)-|
G|-----x-9--x-9-------x-11-x-11-------x-13-x-13----------|
D|-----x-10-x-10------x-12-x-12-------x-14-x-14----------|
A|-------------------------------------------------------|
E|-------------------------------------------------------|

After Chorus:
     01:18 - 01:21                 01:22 - 01:27
e|-------------------------||-----------------------------|
B|-------------------------||-----------------------------|
G|-------------------------||-----------------------------|
D|-------------------------||-----------------------------|
A|------------9-6----------||-------------9-6-------------|
E|-4/6-66-9-6-----4/6-66-9-||--4/6-66-9-6-----(6)-4^-2^---|
                            01:28 - 01:43
e|--------------------------------------------------------------------------|
B|----------------------------------------------------------(15b)-----------|
G|---------------------------------------------------------------(13b)------|
D|--------------------------------------------------------------------(13b)-|
A|-----------9-6------11--9-1312-10-12b--13--12---10-12-10------------------|
E|-4/6-66-9------91011---------------------12--12---------------------------|

Chorus:
                02:01 - 02:24
e|-4/8-x-8--x-8--8/10-x-10-x-10-10/11-x-11-x-11/12-x-12-x-12--|
B|-4/8-x-8--x-8--8/10-x-10-x-10-10/11-x-12-x-11/12-x-12-x-12--|
G|-----x-9--x-9-------x-11-x-11-------x-11-x-------x-13-x-13--|2x
D|-----x-10-x-10------x-12-x-12--------------------x-14-x-14--|
A|------------------------------------------------------------|
E|------------------------------------------------------------|

                 02:25 - 02:33  
e|-4/8-x-8--x-8--8/10-x-10-x-10-10/12-x-12-x-12-12\\\(0)-|
B|-4/8-x-8--x-8--8/10-x-10-x-10-10/12-x-12-x-12-12\\\(0)-|
G|-----x-9--x-9-------x-11-x-11-------x-13-x-13----------|
D|-----x-10-x-10------x-12-x-12-------x-14-x-14----------|
A|-------------------------------------------------------|
E|-------------------------------------------------------|

After Chorus:
               02:39 - 02:48
e|-------------------------------------------------|
B|-------------------------------------------------|
G|-------------------------------------------------|
D|---------88-8-8-88-8--------88-8-8-88-8----------|
A|-7h8h9-7-----7-7----7-7h9p7-----7-7-----(7/13p0)-|
E|-------------------------------------------------|
       02:50 - 02:58
e|-------------------------|
B|-------------------------|
G|-----7--77-7------7-77-7-|
D|-7-9----99-9--7-9---99-9-|
A|-------------------------|
E|-------------------------|
         02:59 - 03:07
e|---------------------------------------------|
B|-------8----8----------------8---------------|
G|-7-9-9--9-9--9-99-7-9--7-9-9--9-9-7-9-99-7-9-|
D|-----9----9----99-9-9------9----9-----99-9-9-|
A|---------------------------------------------|
E|---------------------------------------------|
          03:08 - 03:18
e|--------------------------------------------------|
B|---------10b----------10b-------------------------|
G|-7-9-99-------7-9-99-------7-9-99-9--xx7xx7xx7xx7-|
D|-----99-----------99-----------99-9--xx9xx9xx9xx9-|
A|--------------------------------------------------|
E|--------------------------------------------------|

Solo:
       03:19 - 03:26
e|--------------------------|
B|--------------------------|
G|-/6-----/6----/6----/7----|
D|----2~-----4~----2~-------|
A|-----------------------6~-|
E|--------------------------|
    03:29 - 03:34          03:35 - 03:37     03:37 - 03:40
e|-------------------|  |-----------------|-------------------|
B|-------------------|  |----------12-----|-------------------|
G|--------------12---|3x|------------12---|--------------12---|
D|---9-12-9---9---12-|  |---9-12-9-----12-|---9-12-9---9---12-|
A|-12-------12-------|  |-12--------------|-12-------12-------|
E|-------------------|  |-----------------|-------------------|
   03:41 - 03:42               03:43 - 03:46
e|------------------|----------------------------------------|
B|--------------12--|----------------------------------------|
G|------------------|--------------12------------------------|
D|---9-12-9---9-----|---9-12-9---9---12--7-9-9999-7-9-9999---|
A|-12-------12------|-12-------12----------------------------|
E|------------------|----------------------------------------|
                    03:47 - 03:57
e|------------------------------------------------------------|
B|------------12------12-------------12-----12----------------|
G|-7-9-9--7-9-11--7-9-11--14-12--7-9-11-7-9-11-x9-99-9x9-99-9-|
D|-----9---------------------------------------x9-99-9x9-99-9-|
A|------------------------------------------------------------|
E|------------------------------------------------------------|
                03:57 - 04:07
e|---------------------------------------------------|
B|---------------------------------------------------|
G|---------------------------------------------------|
D|-8-8p7p0-7-9--8-8p7p0-7-9--8-8p7p0-7-9-------------|
A|---------7-7----------7-7----------7-7--5-7-77777--|
E|---------------------------------------------------|
               04:08 - 04:18
e|-6b-6p5p0-6b-6p5p0-6b-6p5p0-7-6--6b-6p5p0-6b-6p5p0-------------------|
B|----------------------------8-7--------------------------------------|
G|---------------------------------------------------7-9-9-99-7-9-9-99-|
D|---------------------------------------------------9-9-9-99-9-9-9-99-|
A|---------------------------------------------------------------------|
E|---------------------------------------------------------------------|
                 04:19 - 04:26
e|-----------------------------------------------------------------|
B|-----------------------------------------------------------------|
G|-----------------------------------------------------------------|
D|-----------------------------------------------------------------|
A|-5-777777-5-777777-5-777777-5-777777-777777-777777-777777-777777-|
E|-----------------------------------------------------------------|
                 04:26 -  04:38
e|----------------------------------------------------------------------|
B|----------------------------------------------------------------------|
G|----------------------------------------------------------------------|
D|-999999-9777777-7555555-5444444---------------------------------------|
A|-777777-7777777-7777777-7777777-777777-7777777-7777777-777777-7-7--7--|
E|--------------------------------888888-8777777-7555555-555555-7-8-(0)-|

Thank to read.





Comments


Popular O.K. Go tabs & chords
A Million Ways 2 Bass Tabs
Get Over It Bass Tabs
Im Not Through Chords
Needing Getting 5 Chords
Bye Bye Baby Tabs
Get Over It Tabs
Needing Getting Tabs
Television Television Tabs
I Want You So Bad I Cant Breathe Ukulele
The House Wins Ukulele


Song lyrics



↑ Back to top | Tablatures and chords are parodies/interpretations of the original songs. You may use it for private study, scholarship, research or language learning purposes only
© 2014 AZChords.com Contact us | Privacy policy | DMCA | Add/correct tabs | Request tabs | Top 50 tabs