» » »

O.K. Go, No Sign Of Life Bass tabs (ver.1)

Artists:  A B C D E F G H I J K L M N O P Q R S T U V W X Y Z # 

No Sign Of Life Bass tabs (ver.1)

O.K. Go Tabs
Rating:
0/5 (0 votes)
No Sign Of Life lessons Tabs too difficult? Try these video lessons and learn fast
                No bass in Intro

*hold

Order:
Part 1 (x6)
Part 2
Part 1 (x5)
Part 2
Bridge
Part 1 (x7)
Part 2
Bridge (x2) there is a rit. at the end of the second time
Part 1 (x8)
End

0:12
Part 1
G[-------------------------------------]
D[-------------------------------------]
A[-5-5-5-5-----------------------------]    
E[---------0-0-0-0-3-3-3-3-5-5-5-5-----]

0:53
Part 2     (But I got a hunch.....)
G[----------------------------------------------------------------]
D[----------------------------------------------------------------]
A[-2-2-2----------------1-1-1--5-5-5-5-5-5-5-5--------------------]
E[--------2-2-2--3-3-3-------------------------5-5-5-5-5-5-5-5----]

1:46
Bridge
G[--------------------]
D[--------------------]
A[--------------------]
E[-5-5-5-5-5-5-5-5----]

3:35
End
G[-------]
D[-------]
A[-5*----]
E[-------]
            

comments powered by Disqus
↑ Back to top | O.K. Go Bass for No Sign Of Life. Lyrics for acoustic guitar and electric guitar. Tablatures and chords are parodies/interpretations of the original songs. You may use it for private study, scholarship, research or language learning purposes only