» » »

O.K. Go, Maybe This Time Bass tabs (ver.1)

Artists:  A B C D E F G H I J K L M N O P Q R S T U V W X Y Z # 

Maybe This Time Bass tabs (ver.1)

O.K. Go Tabs
 Rating:
4/5 (4 votes)
Maybe This Time lessons Tabs too difficult? Try these video lessons and learn fast
1
                This is an awesome song orientated around the bass line, so enjoy 


Intro/main riff
G|----------------------------------|
D|--7-7-7---------------------------|
A|--------8-8-7-7-------------------|
E|----------------8-5-5-5-8-8-8-8-8-|x7

Pre-chorus
G|----------------------------------|
D|----------------------------------|
A|--------3-3-3-----------3-3-3-3-3-|
E|--1-1-1-------3-4-5-5-5-----------|

Intro/main riff x3
Prechorus x2

chorus pt.1
G|-------------------------------------------------|
D|-------------------------------------------------|
A|---------------------------------3-3-3-3-3-3-3-3-|
E|-1-1-1-1-1-1-1-1-5-5-5-5-5-5-5-5-----------------|

Chorus pt.2
G|----------------------------------|
D|----------------------------------|
A|-----------------5-5-5-5-5-5-5-5--|
E|-1-1-1-1-1-1-1-1------------------|

Intro/main riff x5
Prechorus x2
chorus pt.1 x3
chorus pt.2 x1
Intro/main riff
Prechorus
Intro/main riff
Prechorus x2
chorus pt.1 x3
chorus pt.2 x1
            
Submit corrections

comments powered by Disqus
↑ Back to top | O.K. Go Bass for Maybe This Time. Lyrics for acoustic guitar and electric guitar. 1 Tablatures and chords are parodies/interpretations of the original songs. You may use it for private study, scholarship, research or language learning purposes only