» » »

O.K. Go, Invincible Tabs (ver.4)

Artists:  A B C D E F G H I J K L M N O P Q R S T U V W X Y Z # 

Invincible Tabs (ver.4)

O.K. Go Tabs
Rating:
0/5 (0 votes)
Invincible lessons Tabs too difficult? Try these video lessons and learn fast
                -------------------------------------------------------------------------------
                             Invincible - OK GO
-----------------------------------------------------------------------------

Tuning:Normal

This is just for the main guitar not the guitar in the background!

startig riff. X2
e|-------------------------------------------------------------------------------|
B|-------------------------------------------------------------------------------|
G|----------------------------------------9--9-----------------------------------|
D|--0--0-----5--5-----7--7-----9----12----9--9------5--5----7--7---9---5--0------|
A|--0--0-----5--5-----7--7-----9----12----7--7------5--5----7--7---9---5--0------|
E|--0--0-----3--3-----5--5-----7----10--------------3--3----5--5---7---3--0------|
After you play the main riff X2 play
e|---------------------------------------------------------------------------|
B|---------------------------------------------------------------------------|
G|---5-5-5-5-5-5-5-5---------------------------------------------------------|
D|---5-5-5-5-5-5-5-5---------------------------------------------------------|
A|---3-3-3-3-3-3-3-3---------------------------------------------------------|
E|---------------------------------------------------------------------------|
After you play the Main Riff the 2nd time play.
e|---------------------------------------------------------------------------|
B|---------------------------------------------------------------------------|
G|----------------5-5---4-4--------------------------------------------------|
D|--5------7------5-5---4-4--------------------------------------------------|
A|--5-X8---7-X8---3-3---2-2--------------------------------------------------|
E|--3------5-----------------------------------------------------------------|

After that it's no that hard to figure it out, it's all the stuff i showed you , just in
order (kinda)! Hope You Enjoy It!!
            
Submit corrections

comments powered by Disqus
↑ Back to top | O.K. Go Tabs for Invincible. Lyrics for acoustic guitar and electric guitar. Tablatures and chords are parodies/interpretations of the original songs. You may use it for private study, scholarship, research or language learning purposes only