» » »

O.K. Go, Hello, My Treacherous Friends Tabs (ver.1)

Artists:  A B C D E F G H I J K L M N O P Q R S T U V W X Y Z # 

Hello, My Treacherous Friends Tabs (ver.1)

O.K. Go Tabs
Rating:
0/5 (0 votes)
Hello, My Treacherous Friends lessons Tabs too difficult? Try these video lessons and learn fast
                Tuning: Standard
/=slide up
\=slide down

Verse 1: comes in about halfway through, and is very quiet at first.

e|------------------------------|
B|-7-----6-6-6-6-5-5-5-5-7-7-7-7|
G|-8-----7-7-7-7-4-4-4-4-8-8-8-8|
D|------------------------------|
A|------------------------------|
E|------------------------------|

Repeat three times after verse, then:
Chorus:

e|---------------------------------------------------------------------------|
B|-5----5-5-5/9-9-9-9-9-9-9-9-9/10-10-10-10-10-10-10-10-10/12-12-12-12-12-12\|
G|-5----5-5-5/9-9-9-9-9-9-9-9-9/10-10-10-10-10-10-10-10-10/12-12-12-12-12-12\|
D|-5----5-5-5/9-9-9-9-9-9-9-9-9/10-10-10-10-10-10-10-10-10/12-12-12-12-12-12\|
A|-3----3-3-3/7-7-7-7-7-7-7-7-7/-8--8--8--8--8--8--8--8--8/10-10-10-10-10-10\|
E|---------------------------------------------------------------------------|
Play four times.

Verse 2: Verse riff, a little louder.

Chorus 2: Chorus riff, two times.

Solo:

e|-----------|
B|-10-10--9-9|
G|-----------|
D|-7--7---6-6|
A|-----------|
E|-----------|
Play four times, then the keyboard does something like this:

e|----------|
B|----------|
G|777-19-777|
D|----------|
A|555-17-555|
E|----------|

Back to guitar:
Heavy wah-wah effect

e|------------------------------------|
B|12/13-13-13-13-13-13-13-13-13-12-12-|
G|------------------------------------|
D|-9/10-10-10-10-10-10-10-10-10-9--9--|
A|------------------------------------|
E|------------------------------------|
Play four times.

Then play chorus riff four times.  Second guitar, if available, plays verse riff four times.
            

comments powered by Disqus
↑ Back to top | O.K. Go Tabs for Hello, My Treacherous Friends. Lyrics for acoustic guitar and electric guitar. Tablatures and chords are parodies/interpretations of the original songs. You may use it for private study, scholarship, research or language learning purposes only