» » »

O.K. Go, Get Over It -Lead And Rythm Tabs (ver.1)

Artists:  A B C D E F G H I J K L M N O P Q R S T U V W X Y Z # 

Get Over It -Lead And Rythm Tabs (ver.1)

O.K. Go Tabs
 Rating:
4/5 (4 votes)
Get Over It -Lead And Rythm lessons Tabs too difficult? Try these video lessons and learn fast
                Track: Get Over it
Rhythm: Damien these are his parts
Main Riff:
This is only the main riff I recently saw them live it was great so here it is

E-----------------0-0---------
B------xxxx-------0-0----------
G--4-4-xxxx-------1-1-2-3------
D--4-4-xxxx-4-4-3-2-2-2-3------
A--2-2-xxxx-4-4-3-2-2-0-1------
E-----------2-2-1-0-0-----------
Repeat this through the song
Damien doesn’t do the first solo he does the second solo 
It goes a bit like this
E-----------------------------------------
B—12b-12b-12b-14b-15b-x-x-12b-14b-15b-12b-
G-----------------------------------------
D-----------------------------------------
A-----------------------------------------
E-----------------------------------------
After the solo it does this
E-----------------------------------------
B-----------------------------------------
G--9-9-9b-9-9b-9-11-9-7b------------------
D------------------------9b---------------
A-----------------------------------------
E-----------------------------------------
Lead: Andy Duncan
He plays the same as Damien except he plays the first solo
Instead of the second also he doesn’t play the main riff
Until a few times after the intro.
Here is his solo
E-----------------------------------------
B--5-7-7-5-7-5-7-7-5-7-5-7-7s11-12-12-12-12
G-----------------------------------------
D-----------------------------------------
A-----------------------------------------
E-----------------------------------------
E-----------------------------------------
B—5b-5b-7-7-10-7-------------------------
G-----------------------------------------
D-----------------------------------------
A-----------------------------------------
E-----------------------------------------
That is basically the only thing Andy does different other 
Than play the keyboard bit in the studio and the key
Board bit on the guitar when played live.

Both soos are made by flanger and feedback 
            
Submit corrections

comments powered by Disqus
↑ Back to top | O.K. Go Tabs for Get Over It -Lead And Rythm. Lyrics for acoustic guitar and electric guitar. Tablatures and chords are parodies/interpretations of the original songs. You may use it for private study, scholarship, research or language learning purposes only