» » »

O.K. Go, Get Over It Tabs (ver.2)

Artists:  A B C D E F G H I J K L M N O P Q R S T U V W X Y Z # 

Get Over It Tabs (ver.2)

O.K. Go Tabs
 Rating:
4/5 (4 votes)
Get Over It lessons Tabs too difficult? Try these video lessons and learn fast
1
                B=bend
T=trem pick (really fast)
\\=slide all the way down
~=vibrato

Intro/verse:

e|--------------------------------|
B|-3-3--------------2-2-2--3-3-3-3|
G|-4-4-3-3-2-2--1-1-2-2-2--3-3-3-4|
D|-4-4-4-4-3-3--2-2-2-2-2--3-3-3-4|
A|-2-2-4-4-3-3--2-2-0-0-0--1-1-1-2|
E|-----2-2-1-1--0-0---------------|
Play 2x for intro, then 4x for verse.  After second time in verse, guitar 2 joins from:

e|------|
B|------|
G|------|
D|------|
A|------|
E|-12\\-|

Chorus:

e|-----------------------------|
B|-----------------------------|
G|-7-7-------------------------|
D|-7-7-4-4-4-4-5-5-5-5-7-7-7-7-|
A|-5-5-4-4-4-4-5-5-5-5-7-7-7-7-|
E|-----2-2-2-2-3-3-3-3-5-5-5-5-|

Play 3x.

End of chorus:

Guitar 1:

e|---------------------------------|
B|---------------------------------|
G|---------------------------------|
D|-3-3-3-3-3-3-3-3-2-2-2-2-2-2-2-2-|
A|-5-5-5-5-5-5-5-5-4-4-4-4-4-4-4-4-|
E|-3-3-3-3-3-3-3-3-2-2-2-2-2-2-2-2-|

Guitar 2:

e|---------------------------------|
B|--------------------------2~-----|
G|----4~-------------3~------------|
D|-3~------3~-----2~---------------|
A|---------------------------------|
E|---------------------------------|

Solo 1:

e|-------------------------------------------------------------7-9B--13-14-13-14-----------|
B|---------------------------------7---10B-10B-10B-10B-10-7-10-----------------------------|
G|-9B-9B-9B----9B-7-9B-9B-9B----9B-----------------------------------------------9-11-14-9B|
D|-----------------------------------------------------------------------------------------|
A|-----------------------------------------------------------------------------------------|
E|-----------------------------------------------------------------------------------------|

Play verse riff 4x, then chorus.

Solo 2:

Guitar 1:           Guitar 2:

e|--------------|   e|-------------|
B|-12T-14T-14TB-|   B|-------------|
G|--------------|   G|-16T-18T-18TB|
D|--------------|   D|-------------|
A|--------------|   A|-------------|
E|--------------|   E|-------------|

Play 2x.

In the live version, thy improvise around the B minor scale for this next part, so I'll give you
the studio version as a general guide:

e|-7-7-7---7---7-7-------------|
B|-7-7-7---7---7-7-------------|
G|-9-9-9B------9-9B---9B-7-----|
D|------------------9------9\\-|
A|------------------9----------|
E|------------------7----------|

Then play the main part of the chorus 7x, and the end of the chorus once, and end on a B5 chord.
            
Submit corrections

comments powered by Disqus
↑ Back to top | O.K. Go Tabs for Get Over It. Lyrics for acoustic guitar and electric guitar. 1 Tablatures and chords are parodies/interpretations of the original songs. You may use it for private study, scholarship, research or language learning purposes only