>
 >
End Love 1

End Love 1 Bass Tabs

O.K. Go - End Love 1 chords, tabs, tablatures, lyrics

Guitar lessons | Add/correct | Request | Top 50 tabs Artists:  A B C D E F G H I J K L M N O P Q R S T U V W X Y Z 0-9

End Love 1 Bass Tabs – O.K. Go

CD, Sheet music, Poster

Do you like End Love 1? Share with your friends now
Bass TabsBass Tabs v2ChordsChords v2Ukulele
Before you start reading the tab, I will tell you not to play the music according to the 
written beneath the tab, you'll understand.

Verse:
G|----------------------------------------------||
D|----------------------------------------------||
A|----------------------------------------------||
E|--5-5-5-5-5/7-7-7-7-7/9-9-9-9-9/5-5-5-5-5-5-5-||
"Oh sugar, oh sugar can't you see how hard I'm trying?..."
Verse2:
G|----------------------------------------------||
D|----------------------------------------------||
A|----------------------------------------------||
E|--5-5-5-5-5/7-7-7-7-7/9-9-9-9-9/5-5-5-5-5-5-5-||
"So won't you, so won't you talk to me? It's time to decide."

It's an easy song, for all the music you'll play this riff under the chorus and the end 
see).

Chorus:

G|--------------------------------------||
D|--------------------------------------||X2
A|-4-4-4-4-4-4-4-4-4-4-4-4-4-4-2-2-2----||
E|-----------------------------------2-2||
End Love, the sky is falling.

At "the sky is falling" will return you to the main riff.

Verse3:
G|-------------------------------------------||
D|-------------------------------------------||
A|-------------------------------------------||
E|--5-5-5-5-5/7-7-7-7-7/9-9-9-9-9/5-5-5-5----||
"So sugar, so sugar dance with me this one last time."

Chorus2:
G|--------------------------------------||
D|--------------------------------------||X2
A|-4-4-4-4-4-4-4-4-4-4-4-4-4-4-2-2-2----||
E|-----------------------------------2-2||
End Love, the sky is falling.

Mini Verse:
G|----------------------------------------------||
D|----------------------------------------------||
A|----------------------------------------------||
E|--5-5-5-5-5/7-7-7-7-7/9-9-9-9-9/5-5-5-5-5-5-5-||
"Oh sugar, oh sugar can't you see how hard I'm trying?
You know you gotta, you know you gotta eventually make up your mind."

Chorus3:
G|--------------------------------------||
D|--------------------------------------||X2
A|-4-4-4-4-4-4-4-4-4-4-4-4-4-4-2-2-2----||
E|-----------------------------------2-2||
"End Love, the sky is falling"

End (no love):
play along with the battery, will make a sound like, tum tum tum tum
G|------------------------||
D|------------------------||
A|------------------------||
E|-5-5-5-5-5-5-5-5-5-5-5-5||
"End love, the sky is falling, end love the sky is falling."

End with:
G|------||
D|------||
A|------||
E|--5---||
"The sky is falling"

I hope to earn five stars because it is a good tab I do not know how to play bass too 
I know this is a good tab. Thanks for reading (do not forget to vote and comment).





Comments


Popular O.K. Go tabs & chords
Before The Earth Was Round Chords
Get Over It Chords
Here It Goes Again Chords
I Want You So Bad I Can't Breathe Chords
A Million Ways Tabs
A Million Ways 1 Tabs
All Is Not Lost Tabs
Invincible Intro Tabs
Let It Rain Tabs
Theres A Fire Tabs


Song lyrics



↑ Back to top | Tablatures and chords are parodies/interpretations of the original songs. You may use it for private study, scholarship, research or language learning purposes only
© 2014 AZChords.com Contact us | Privacy policy | DMCA | Add/correct tabs | Request tabs | Top 50 tabs