» » »

O.K. Go, End Love Bass tabs (ver.1)

Artists:  A B C D E F G H I J K L M N O P Q R S T U V W X Y Z # 

End Love Bass tabs (ver.1)

O.K. Go Tabs
 Rating:
4/5 (4 votes)
End Love lessons Tabs too difficult? Try these video lessons and learn fast
                -----------------------------------------------------------------
End Love – Ok Go
-----------------------------------------------------------------
Tuning: standard (EADG)

 I'm kinda unsure about the outro but this sounds right to me. Feel free to post corrections.
Intro/Verse 1. bass enters at 0:04
G|---------------------------------------------------|
D|---------------------------------------------------|  x10
A|---------------------------------------------------|
E|-5------------5/7--------------7/9-------------9/5-|
Chorus. And it's end love...
G|--------------------------------------|
D|-----------------------------2-2-2-1--|
A|-4-234-234-234-9\---------------------|
E|------------------2-2-2--22-----------|
                               { 3 }
G|------------------------------|
D|------------------------------|
A|-4-234-234-234-9\-------------|
E|------------------2-2-2-2-24~-|
Post Chorus.
G|----------------------------|
D|----------------------------|
A|-7-7-7---77-----------------|
E|-----------------5-----5/7--|
Verse 2. So sugar dance with me...
G|---------------------------------------------------|
D|---------------------------------------------------|  x4
A|---------------------------------------------------|
E|-5------------5/7--------------7/9-------------9/5-|
Chorus. And it's end love...
G|--------------------------------------|
D|-----------------------------2-2-2-1--|
A|-4-234-234-234-9\---------------------|
E|------------------2-2-2--22-----------|
                               { 3 }
G|------------------------------|
D|------------------------------|
A|-4-234-234-234-9\-------------|
E|------------------2-2-2-2-24~-|
Bridge.                                                2nd time play this at
G|------------||----------------------------------------|   |-----|  the end.
D|------------||-----------------------------------7\---|x2 |-----|
A|-7-7-7---77-||---------------------------------7---0--|   |-7/\-| (fast)
E|------------||-5-5-5--------5/7----------7/9-9--------|   |-----|
Verse 3. Oh sugar cant you see...
G|----------------------------------------------------------------|
D|---------------------------------7\-----------------------------| x2
A|-------------------------------7---0----------------------------|
E|-5-5-5-----5/7----------7/9-9-----------------------------------|



Chorus. And it's end love...
G|--------------------------------------|
D|-----------------------------2-2-2-1--|
A|-4-234-234-234-9\---------------------|
E|------------------2-2-2--22-----------|
                               { 3 }
G|------------------------------|
D|------------------------------|
A|-4-234-234-234-9\-------------|
E|------------------2-2-2-2-24~-|

Post Chorus.
G|----------------------------|
D|----------------------------|
A|-7-7-7---77-----------------|
E|----------------------------|

Outro. End love love love...sky is falling

G|-------------------------|
D|-------------------------| x2
A|-----------------4-4-4-4-|
E|-5-5-5-5-2-2-2-2---------|


G|---------------------------------| |-----------------------------|
D|---------------------------------| |-----------------------------|
A|-------------------------4-4-4-4-| |-----------------------------|
E|-5-5-5-5-2-2-2-2-5-5-5-5---------| |-5-5-5-5-2-2-2-2-5-5-5-5-5~~~|

| { 3 } triplet
| /  slide up
| \  slide down
| h  hammer-on
| p  pull-off
| ~  vibrato
| +  harmonic
| x  Mute note
            
Submit corrections

comments powered by Disqus
↑ Back to top | O.K. Go Bass for End Love. Lyrics for acoustic guitar and electric guitar. Tablatures and chords are parodies/interpretations of the original songs. You may use it for private study, scholarship, research or language learning purposes only