» » »

O.K. Go, Don't Ask Me Tabs (ver.1)

Artists:  A B C D E F G H I J K L M N O P Q R S T U V W X Y Z # 

Don't Ask Me Tabs (ver.1)

O.K. Go Tabs
 Rating:
4/5 (4 votes)
Don't Ask Me lessons Tabs too difficult? Try these video lessons and learn fast
1
                Band: okgo

standard tuning:
Eadgbe

      intro x2 then verse x2
 e----------------------------------------------------------------|
 b----------------------------------------------------------------|
 g----5------------7--10-10---------------------------------------|
 d----5---5---7----7--10-10---------------------------------------|
 a----3---5---7----5--8--8----------------------------------------|
 E--------3---5---------------------------------------------------|

       pre chorus
 e----------------------------------------------------------------|
 b----------------------------------------------------------------|
 g------5-5-5-----------------------------------------------------|
 d------5-5-5--5s9--10-10-----------------------------------------|
 a------3-3-3--5s9--10-10-----------------------------------------|
 E-------------3s7--8--8------------------------------------------|

        chorus
 e----------------------------------------------------------------|
 b----------------------------------------------------------------|
 g----5555-----------77-1010--------------------------------------|
 d----5555-5555-7777-77-1010--------------------------------------|
 a----3333-5555-7777-55-8-8---------------------------------------|
 E---------3333-5555----------------------------------------------|

 e----------------------------------------------------------------|
 b----------------------------------------------------------------|
 g----5555--------------------------------------------------------|
 d----5555-5555-3333-55-------------------------------------------|
 a----3333-5555-3333-55-------------------------------------------|
 E---------3333-1111-33-------------------------------------------|

       verse x4
 e----------------------------------------------------------------|
 b----------------------------------------------------------------|
 g----5------------7--10-10---------------------------------------|
 d----5---5---7----7--10-10---------------------------------------|
 a----3---5---7----5--8--8----------------------------------------|
 E--------3---5---------------------------------------------------|

       pre chorus
 e----------------------------------------------------------------|
 b----------------------------------------------------------------|
 g------5-5-5-----------------------------------------------------|
 d------5-5-5--5s9--10-10-----------------------------------------|
 a------3-3-3--5s9--10-10-----------------------------------------|
 E-------------3s7--8--8------------------------------------------|

        chorus
 e----------------------------------------------------------------|
 b----------------------------------------------------------------|
 g----5555-----------77-1010--------------------------------------|
 d----5555-5555-7777-77-1010--------------------------------------|
 a----3333-5555-7777-55-8-8---------------------------------------|
 E---------3333-5555----------------------------------------------|

 e----------------------------------------------------------------|
 b----------------------------------------------------------------|
 g----5555--------------------------------------------------------|
 d----5555-5555-3333-55-------------------------------------------|
 a----3333-5555-3333-55-------------------------------------------|
 E---------3333-1111-33-------------------------------------------|

        interlude
 e----------------------------------------------------------------|
 b----------------------------------------------------------------|
 g----5555-9999-7777-10101010-----5--9---------7777-121212--------|
 d----5555-9999-7777-10101010-----5--9--7------7777-121212--------|
 a----3333-7777-5555-8-8-8-8------3--7--7------5555-101010--------|
 E--------------------------------------5-------------------------|

    x2                      (2nd time only)
 e----------------------------------------------------------------|
 b----------------------------------------------------------------|
 g----5------------7--10-10------(5)------------------------------|
 d----5---5---7----7--10-10------(5)------------------------------|
 a----3---5---7----5--8--8-------(3)------------------------------|
 E--------3---5---------------------------------------------------|


 e----------------------------------------------------------------|
 b----------------------------------------------------------------|
 g----5------------7--10-10---------------------------------------|
 d----5-------7----7--10-10---------------------------------------|
 a----3-------7----5--8--8----------------------------------------|
 E------------5---------------------------------------------------|

     chorus
 e----------------------------------------------------------------|
 b----------------------------------------------------------------|
 g----5555-----------77-1010--------------------------------------|
 d----5555-5555-7777-77-1010--------------------------------------|
 a----3333-5555-7777-55-8-8---------------------------------------|
 E---------3333-5555----------------------------------------------|

 e----------------------------------------------------------------|
 b----------------------------------------------------------------|
 g----5555--------------------------------------------------------|
 d----5555-5555-3333-5555-----------------------------------------|
 a----3333-5555-3333-5555-----------------------------------------|
 E---------3333-1111-3333-----------------------------------------|

 x4  bit confusing but just listen to the song starts 2.03 mins in
 e----------------------------------------------------------------|
 b----------------------------------------------------------------|
 g----5555--------------------------------------------------------|
 d----5555-5555-7777-55-------------------------------------------|
 a----3333-5555-7777-55-------------------------------------------|
 E---------3333-5555-33-------------------------------------------|

        x3
 e----------------------------------------------------------------|
 b----------------------------------------------------------------|
 g----5555-----------77-1010--------------------------------------|
 d----5555-5555-7777-77-1010--------------------------------------|
 a----3333-5555-7777-55-8-8---------------------------------------|
 E---------3333-5555----------------------------------------------|

       outro
 e----------------------------------------------------------------|
 b----------------------------------------------------------------|
 g----5555----------------5~--------------------------------------|
 d----5555-5555-3333-55---5~--let-ring----------------------------|
 a----3333-5555-3333-55---3~--------------------------------------|
 E---------3333-1111-33-------------------------------------------|
            
Submit corrections

comments powered by Disqus
↑ Back to top | O.K. Go Tabs for Don't Ask Me. Lyrics for acoustic guitar and electric guitar. 1 Tablatures and chords are parodies/interpretations of the original songs. You may use it for private study, scholarship, research or language learning purposes only