» » »

O.K. Go, Bye Bye Baby Bass tabs (ver.1)

Artists:  A B C D E F G H I J K L M N O P Q R S T U V W X Y Z # 

Bye Bye Baby Bass tabs (ver.1)

O.K. Go Tabs
 Rating:
4/5 (4 votes)
Bye Bye Baby lessons Tabs too difficult? Try these video lessons and learn fast
                Alright I'm 99% sure this is right
This is my favourite OK Go song, alright here it goes

-------------------------------------------------------------------------------
			     Bye Bye Baby - OK Go
-------------------------------------------------------------------------------


Tuning: Standard

Bass Comes in after "Cybil says as she walks out the door"

Verse (play once, then theres a short break, then 3 times)
G|---------------------------------------------------------------------------|
D|---------------------------------------------------------------------------|
A|---4-----454-----4-----432-------------------------------------------------|
E|5------2------1------0-----------------------------------------------------|

Chorus
G|---------------------------------------------------------------------------|
D|---------------------------------------------------------------------------|
A|2-2-2-2-2-2-4-4-4-4-4-4-0-0-0-0-0-0----------------------------------------|
E|------------------------------------2-2-2-2-2-2----------------------------|

G|---------------------------------------------------------------------------|
D|---------------------------------------------------------------------------|
A|2-2-2-2-2-2-4-4-4-4-4-4-0-0-0-0-0------------------------------------------|
E|--------------------------------------2-2-2-2-2----------------------------|

G|---------------------------------------------------------------------------|
D|---------------------------------------------------------------------------|
A|2-2-2-2-2-2-4-4-4-4-4-4-0--------------------------------------------------|
E|------------------------------------2--------------------------------------|

Interlude
G|------------------------------------------------------------------------
D|------------------------------------------------------------------------
A|------------------------------------------------------------------------
E|5--5-5---5--5-5---5--5-5---5--5-5---5--5-5---5--5-5---2--2-2---2--2-2---

---------------|
---------------|
---------------|
1--1-1---1--1-1|

G|---------------------------------------------------------------------------|
D|---------------------------------------------------------------------------|
A|---------------------------------------------------------------------------|
E|5-5-5-5-5-5-2-2-2-2-2-2-1-1-1-1-1-1-0-0-0-0-0-0----------------------------|

Verse x2
G|---------------------------------------------------------------------------|
D|---------------------------------------------------------------------------|
A|---4-----454-----4-----432-------------------------------------------------|
E|5------2------1------0-----------------------------------------------------|

Chorus
G|---------------------------------------------------------------------------|
D|---------------------------------------------------------------------------|
A|2-2-2-2-2-2-4-4-4-4-4-4-0-0-0-0-0-0----------------------------------------|
E|------------------------------------2-2-2-2-2-2----------------------------|

G|---------------------------------------------------------------------------|
D|---------------------------------------------------------------------------|
A|2-2-2-2-2-2-4-4-4-4-4-4-0-0-0-0-0------------------------------------------|
E|--------------------------------------2-2-2-2-2----------------------------|

G|---------------------------------------------------------------------------|
D|---------------------------------------------------------------------------|
A|2-2-2-2-2-2-4-4-4-4-4-4-0--------------------------------------------------|
E|------------------------------------2--------------------------------------|

Verse x2
G|---------------------------------------------------------------------------|
D|---------------------------------------------------------------------------|
A|---4-----454-----4-----432-------------------------------------------------|
E|5------2------1------0-----------------------------------------------------|



| /  slide up
| \  slide down
| h  hammer-on
| p  pull-off
| ~  vibrato
| +  harmonic
| x  Mute note
====================================================================
            
Submit corrections

comments powered by Disqus
↑ Back to top | O.K. Go Bass for Bye Bye Baby. Lyrics for acoustic guitar and electric guitar. Tablatures and chords are parodies/interpretations of the original songs. You may use it for private study, scholarship, research or language learning purposes only