» » »

O.K. Go, Back From Kathmandu Chords (ver.1)

Artists:  A B C D E F G H I J K L M N O P Q R S T U V W X Y Z # 

Back From Kathmandu Chords (ver.1)

O.K. Go Tabs
 Rating:
4/5 (4 votes)
Back From Kathmandu lessons Tabs too difficult? Try these video lessons and learn fast
                song      : back from kathmandu
artist    : ok go


album version is tuned down 3 half steps to C#F#BEG#c#
live they usually play it 4 half steps down to CFA#D#GC


CHORDS USED

E   022100
C-5 x04550
Ab  466544
C#m x46654
F#m 244222
B   x24442
E7  020100
G   355433
C   x35553
F#  244322
F   133211


VERSE

       E            C-5       E         C-5
in the dream you were someone different

E            Ab              C#m
you and everyone else all at once

F#m                   B
    you were beautiful you were beautiful

       E            C-5            [E  E  E E7 E] x2
in the dream you were just like you are



CHORUS

G              C                    G               C
everything was so simple things are how they always will be

G             C             G                  G F# F F
  you are the answer to the question that is me

       E          C-5            E
in the dream it was just like it is



BRIDGE

c#-|7--7--7--9--9--9-------------------------3---2-|
G#-|7--7--7--9--9--9--7--7--7--8--8--8--5----3---2-|
E--|8--8--8--10-10-10-8--8--8--9--9--9--5----4---3-|
B--|9--9--9--11-11-11-9--9--9--9--9--9--5----5---4-|
F#-|9--9--9--11-11-11-6--6--6--7--7--7--3----5---4-|
C#-|7--7--7--9--9--9-------------------------3---2-|

    B  B  B  C  C  C  B  B  B  Em Em Em C    G   F#

c#-|---------------------------3--3--3-------3-|
G#-|8--8--8--4--4--4--5--5--5--3--3--3--4----4-|
E--|9--9--9--4--4--4--5--5--5--4--4--4--4----2-|
B--|9--9--9--4--4--4--5--5--5--5--5--5--4----4-|
F#-|7--7--7--2--2--2--3--3--3--5--5--5--2----2-|
C#-|---------------------------3--3--3---------|

    Em Em Em B  B  B  C  C  C  G  G  G  B    B7
            
Submit corrections

comments powered by Disqus
↑ Back to top | O.K. Go Chords for Back From Kathmandu. Lyrics for acoustic guitar and electric guitar. Tablatures and chords are parodies/interpretations of the original songs. You may use it for private study, scholarship, research or language learning purposes only