» » »

O.K. Go, A Million Ways To Be Cruel Bass tabs (ver.1)

Artists:  A B C D E F G H I J K L M N O P Q R S T U V W X Y Z # 

A Million Ways To Be Cruel Bass tabs (ver.1)

O.K. Go Tabs
 Rating:
4/5 (4 votes)
A Million Ways To Be Cruel lessons Tabs too difficult? Try these video lessons and learn fast
1
                    F|--------------------------------------------------------------|
Chorus    C|--------------------------------------------------------|       x5
    G|---------5-5-4-4-2-2-2------0-2------0-2-0--------------------|
    D|-2-2-2\------------------0-2------0-2-------------------------|


        F|-----------1-2-4-6---------------------6---2---1----|
Pre     C|----7-------------7-4--------------7----4-4-3-3-4---|  x1
 Chorus G|-----2~-4-4----------5-5-5-5-5-7----4-4-------------|
        D|-5-5----------------------------5-5-----------------|


    F|--------------------------------------------------------------|
Chorus    C|--------------------------------------------------------|       x2
    G|---------5-5-4-4-2-2-2------0-2------0-2-0--------------------|
    D|-2-2-2\------------------0-2------0-2-------------------------|


	F|-------------------------------------------2-1----|
	C|-----4---------------------------0-------------4--|
	G|-4-------4---5-5-4-4-2-2-2--------2---------------|
	D|---2---2---2------------------2---2---2-----------|
Verse                      (continue below)                             x1
	F|-------------------------------------------------------------|
	C|------4---------------0-----------4-----------------0--------|
	G|--4-4---5-5-4-4-2-2-2---2-2-2-3-4---4-5-5-4-4-2-2-2---2-2-4--|
	D|-2-2-2-2-------------2-2-2-------2-2-2-------------2-2-2-----|


        F|-----------1-2-4-6---------------------6---2---1----|
        C|----7-------------7-4--------------7----4-4-3-3-4---|
        G|-----2~-4-4----------5-5-5-5-5-7----4-4-------------|
        D|-5-5----------------------------5-5-----------------|
PreChorus 2                                                        x1
	F|--------6----7-1--------6----7-1---|
	C|----7---------3-----7---------3-4--|
	G|-----4-4--5-5--------4-4--5-5------|
	D|-5-5------------5-5----------------|


    F|--------------------------------------------------------------|
Chorus    C|--------------------------------------------------------|       x2
    G|---------5-5-4-4-2-2-2------0-2------0-2-0--------------------|
    D|-2-2-2\------------------0-2------0-2-------------------------|


Interlude       F|--------|
        C|----------------|     *see note below
        G|---4------------|
        D|----------------|


    F|--------------------------------------------------------------|
Chorus    C|--------------------------------------------------------|       x2
    G|---------5-5-4-4-2-2-2------0-2------0-2-0--------------------|
    D|-2-2-2\------------------0-2------0-2-------------------------|


	F|-------------------------------------------2-1----|
	C|-----4---------------------------0-------------4--|
	G|-4-------4---5-5-4-4-2-2-2--------2---------------|
	D|---2---2---2------------------2---2---2-----------|
Verse                      (continue below)                             x2
	F|-------------------------------------------------------------|
	C|------4---------------0-----------4-----------------0--------|
	G|--4-4---5-5-4-4-2-2-2---2-2-2-3-4---4-5-5-4-4-2-2-2---2-2-4--|
	D|-2-2-2-2-------------2-2-2-------2-2-2-------------2-2-2-----|


    F|--------------------------------------------------------------|
Chorus    C|--------------------------------------------------------|       x1
    G|---------5-5-4-4-2-2-2------0-2------0-2-0--------------------|
    D|-2-2-2\------------------0-2------0-2-------------------------|


Note:
I am not sure if this is the guitar or bass part for the interlude, but here you go:
    F|-18-----18-19-----18-16-14-16-----16-----16-14-13---------------|
    C|---16-19-----16-19-----------14-16--14-16-----------------------| (continue
    G|----------------------------------------------------------------|      below)
    D|----------------------------------------------------------------|
            F|-18-----18-19-----18-16-14-16-----16-----16-14-13-------|
        C|---16-19-----16-19-----------14-16--14-16-------------------|
        G|------------------------------------------------------------|
                D|----------------------------------------------------|
                           F|-----------------------------------------|
                           C|------------3-3--------------------------|
                           G|-5-5-5-5-5-5-4-4-2-0---------------------|
                           D|--------------------2--------------------|
            
Submit corrections

comments powered by Disqus
↑ Back to top | O.K. Go Bass for A Million Ways To Be Cruel. Lyrics for acoustic guitar and electric guitar. 1 Tablatures and chords are parodies/interpretations of the original songs. You may use it for private study, scholarship, research or language learning purposes only