» » »

O.K. Go, A Million Way Bass tabs (ver.4)

Artists:  A B C D E F G H I J K L M N O P Q R S T U V W X Y Z # 

A Million Way Bass tabs (ver.4)

O.K. Go Tabs
 Rating:
4/5 (4 votes)
A Million Way lessons Tabs too difficult? Try these video lessons and learn fast
                -----------------------------------------------------------------------------
			     A Million Ways - Ok Go
-----------------------------------------------------------------------------

Listen to song for timing

Standard Tuning (EADG)
Legend:
h= hammer on
p= pull off
/= slide up
\= slide down

G|----------------------------------------------------|
D|-----------10---9---7-7-7\------5-7------5-7--------|
A|--7-7-7\--------------------------------------------| X 4
E|-------------8----7---------3-5------3-5------------| 

G|---------------------------------------------------|
D|------5-----------4--5-7-9-------------------------|
A|---------5-7\-2-2----------7-----------------------| X 1
E|--3-3------------------------0--0--0--8-8-8--8-10\-| 

G|------------------------------|
D|------5------4------5------4--|
A|---------2-2----3-3----7-7----|  X 1
E|--3-3-------------------------|  

G|----------------------------------------------------|
D|-----------10---9---7-7-7\------5-7------5-7--------|
A|--7-7-7\--------------------------------------------| X2
E|-------------8----7---------3-5------3-5------------|

G|---------9-9-------------------------------5-5---------------/12--11--|
D|-9-9-------------9-9------10---9---7-7-------------7-7----------------|
A|-----7-7-----7-7-----7-7----------------------------------------10--9-| X 1
E|-----------------------------8---7-----5-5-----5-5-----5-5------------|

G|---------9-9-------------------------------5-5----------------------|
D|-9-9-------------9-9------10---9---7-7-------------7-7------7--8----|
A|-----7-7-----7-7-----7-7--------------------------------------------| X 2
E|-----------------------------8---7-----5-5-----5-5-----5-5---5--6---|

G|---------------------------------------------------|
D|------5-----------4--5-7-9-------------------------|
A|---------5-7\-2-2----------7-----------------------| X 1
E|--3-3------------------------0--0--0--8-8-8--8-10\-| 

G|------------------------------|
D|------5------4------5------4--|
A|---------2-2----3-3----7-7----|  X 2
E|--3-3-------------------------|                 

G|----------------------------------------------------|
D|-----------10---9---7-7-7\------5-7------5-7--------|
A|--7-7-7\--------------------------------------------| X2
E|-------------8----7---------3-5------3-5------------|
   

G|-----------------16-------16--16-14-12---------14-------14--14--12----------|
D|------9----12-14----12-14----------------12-14----12-14------------14-12-14-|
A|-7--------------------------------------------------------------------------|  X 2
E|----------------------------------------------------------------------------|  

G|----------------------------------------------|
D|----------------------------------------------|
A|-3-3--3-3--3-3--3-3--3-6-6--6-2-2--2-6-2------| X1
E|-----------------------------------------5-3--|

G|----------------------------------------------------|
D|-----------10---9---7-7-7\------5-7------5-7--------|
A|--7-7-7\--------------------------------------------| X2
E|-------------8----7---------3-5------3-5------------|

G|---------9-9-------------------------------5-5----------------------|
D|-9-9-------------9-9------10---9---7-7-------------7-7------7--8----|
A|-----7-7-----7-7-----7-7--------------------------------------------| X 1
E|-----------------------------8---7-----5-5-----5-5-----5-5---5--6---|

G|---------9-9-------------------------------5-5---------------/12--11--|
D|-9-9-------------9-9------10---9---7-7-------------7-7----------------|
A|-----7-7-----7-7-----7-7----------------------------------------10--9-| X 1
E|-----------------------------8---7-----5-5-----5-5-----5-5------------|

G|---------9-9-------------------------------5-5----------------------|
D|-9-9-------------9-9------10---9---7-7-------------7-7------7--8----|
A|-----7-7-----7-7-----7-7--------------------------------------------| X 2
E|-----------------------------8---7-----5-5-----5-5-----5-5---5--6---|

G|-------------------------------|
D|------5------4------5------4---|
A|---------2-2----3-3----7-7---7-|  X 1
E|--3-3--------------------------|    

Enjoy
            
Submit corrections

comments powered by Disqus
↑ Back to top | O.K. Go Bass for A Million Way. Lyrics for acoustic guitar and electric guitar. Tablatures and chords are parodies/interpretations of the original songs. You may use it for private study, scholarship, research or language learning purposes only