» » »

O.K. Go, 1000 Miles Per Hour Tabs (ver.1)

Artists:  A B C D E F G H I J K L M N O P Q R S T U V W X Y Z # 

1000 Miles Per Hour Tabs (ver.1)

O.K. Go Tabs
Rating:
0/5 (0 votes)
1000 Miles Per Hour lessons Tabs too difficult? Try these video lessons and learn fast
                song      : 1000 miles per hour
artist    : ok go


standard tuning
listen for timing
put it all together, it should be all right


C riff

e--|--------0-----0----0-0--0---0---|
b--|--------1-----1----1-1--1---1---|
g--|--------0-----0-0h2--2--2---0---|
d--|2---------------2----2--2---2---|
a--|3-------------------------------|
E--|--------------------------------|


  C/B    Am/G   D/F#   Abdim7

e|--0---|--0---|--0---|------|
b|--1---|--1---|--1---|--3---|
g|--0---|--0---|--2---|--4---|
d|--0---|--2---|--0---|--3---|
a|--2---|--x---|--0---|--x---|
E|------|--3---|--2---|--4---|

INTRO - C riff x2

C riff
Another long quiet night

C riff                            F G               C riff
Another long quiet lonely night ohh   spent at your side.

C riff
Not a lot left to say

C riff                                     F G                C riff
There's not a lot that I still could say ohh   to change your mind.


PRECHORUS

F                        G                       C   C/B  Am
But with a little bit of money we could buy us a car

F                  Abdim7                 Am    Am/G  D/F#  F
With a little luck we could get away from where we    are

          Fm
Let's get out of here


CHORUS

      C riff              F        G
We'll drive, one thousand miles an hour

      C riff                  F     G
We'll fly by wheat fields and water towers

      C riff                F            G
We'll go we'll go and we'll go and we'll go

      Am       D/F#     F   G
Let's go let's go let's go    let's go


BRIDGE/GUITAR SOLO-ISH THING

C   F G   C   F G   C C/B Am   F Abdim7 Am Am/G D/F#   F   Fm


e--|-----------------------------------------------------------|
b--|-----------------------------------------------------------|
g--|-----------------------------------------------------------|
d--|--5-----7-5-------------------5---7-7-5--------------------|
a--|7-----------7-5-7---5---3-5-7-----------7-5-7---5---3-5-7--|
E--|-----------------------------------------------------------|


e--|------------------------------------8-----8-----8------10----10---8---10-12-|
b--|----------------------------10---10----10----10---10-9-----9----9---9-------|
g--|---------------5---7---9----9----10-----------------------------------------|
d--|--5---7-7-5----7---9---10---------------------------------------------------|
a--|7-----------7---------------------------------------------------------------|
E--|----------------------------------------------------------------------------|
            
Submit corrections

comments powered by Disqus
↑ Back to top | O.K. Go Tabs for 1000 Miles Per Hour. Lyrics for acoustic guitar and electric guitar. Tablatures and chords are parodies/interpretations of the original songs. You may use it for private study, scholarship, research or language learning purposes only