» » »

Give The People What They Wanr Bass tabs (ver.1)

Artists:  A B C D E F G H I J K L M N O P Q R S T U V W X Y Z # 

Give The People What They Wanr Bass tabs (ver.1)

Ojays
Rating:
0/5 (0 votes)

Hard to play? Try these video lessons and learn fast.
                (Intro)

Tuning: Standard (I play it on a fretless because it sounds better)

also its not perfect yet. im still trying to improve it: give me time.

Main Riff Throughout The Song Mostly

G|----------------------------------------------------------------------------|
D|----10-8-8-10---------8-----------------10-8-8-10--------8------------------|
A|---------------8-10-10-8-10-----------------------8-10-10--8-10-------------|
E|----------------------------8-6-6-8----------------------------8-6-6-8--5/8-|

x2

G|---------------------------------------------------------------------------|
D|----15-13-13-15---------13-------------------------------------------------|
A|----------------13-15-15--13-15--------------------------------------------|
E|-------------------------------13-11-11-13---------------------------------|



| /  slide up
| \  slide down
| h  hammer-on
| p  pull-off
| ~  vibrato
| +  harmonic
| x  Mute note
=============================================================================
            
Hard to play? Try these video lessons and learn fast. | Correct




comments powered by Disqus
↑ Back to top | Tablatures and chords are parodies/interpretations of the original songs. You may use it for private study, scholarship, research or language learning purposes only