» » »

Oi Scouts, Fight To Tabs (ver.1)

Artists:  A B C D E F G H I J K L M N O P Q R S T U V W X Y Z # 

Fight To Tabs (ver.1)

Oi Scouts Tabs
 Rating:
4/5 (4 votes)
Fight To lessons Tabs too difficult? Try these video lessons and learn fast
                (Live)
-------------------------------------------------------------------------------
-------------------------------------------------------------------------------

Tuning: Standard (EBGDAE)

Intro
e|---------------------------------------------------------------------------|
B|---------------------------------------------------------------------------|
G|-7------------77777777---77777777---77777777---77777777--------------------|
D|-7------------77777777---77777777---77777777---77777777--------------------|
A|-5------------55555555---55555555---55555555---55555555--------------------|
E|---------------------------------------------------------------------------|

Verse:
e|---------------------------------------------------------------------------|
B|---------------------------------------------------------------------------|
G|---------------------------------------------------------------------------|
D|-777777-10-12-12-12-12-12-12-12--------------------------------------------|
A|-555555--8-10-10-10-10-10-10-10-9-999999-7-777777--------------------------|
E|--------------------------------7-777777-5-555555--------------------------|

Chorus:
e|---------------------------------------------------------------------------|
B|---------------------------------------------------------------------------|
G|---------------------------------------------------------------------------|
D|-44-555---------------------4-4-444----------------------------------------|
A|-22-333--5-55-5555-7-7-777--2-2-222----------------------------------------|
E|---------3-33-3333-5-5-555-------------------------------------------------|

Bridge:                                             | 
e|----------------------------------------------------------------------------------|
B|----------------------------------------------------------------------------------|
G|-7-77-12-12-12-----------7-77-12-12-12---------------777-9-9-9999----777-9-9-9999-|
D|-7-77-12-12-12-9-999-7-9-7-77-12-12-12-9-999-7----77-777-9-9-9999-77-777-9-9-9999-|
A|-5-55-10-10-10-9-999-7-9-5-55-10-10-10-9-999-7-9--77-555-7-7-7777-77-555-7-7-7777-|
E|---------------7-777-5-7---------------7-777-5-7--55--------------55--------------|
                                                    |  

"Broken" Verse:
e|---------------------------------------------------------------------------|
B|---------------------------------------------------------------------------|
G|-7---12-12---------------5775----------------------------------------------|
D|-7---12-12---999999997-7------7--------------------------------------------|
A|-5---10-10\7-999999997-----------------------------------------------------|
E|-------------777777775-----------------------------------------------------|

End:
e|---------------------------------------------------------------------------|
B|---------------------------------------------------------------------------|
G|-7-------------------------------------------------------------------------|
D|-7-------------------------------------------------------------------------|
A|-5-------------------------------------------------------------------------|
E|---------------------------------------------------------------------------|

Order:
Intro
Verse (x4)
Chorus (x2)
Bridge
Verse (x3)
Chorus (x2)
Bridge (x1 1/2*)
"Broken" Verse
Chorus (x4)
End

*"x1 1/2" means play it full through once, but only play it up to the line the second time.
===============================================================================
            
Submit corrections

comments powered by Disqus
↑ Back to top | Oi Scouts Tabs for Fight To. Lyrics for acoustic guitar and electric guitar. Tablatures and chords are parodies/interpretations of the original songs. You may use it for private study, scholarship, research or language learning purposes only