» » »

Oi Scouts, Anarchy People Tabs (ver.1)

Artists:  A B C D E F G H I J K L M N O P Q R S T U V W X Y Z # 

Anarchy People Tabs (ver.1)

Oi Scouts Tabs
Rating:
0/5 (0 votes)
Anarchy People lessons Tabs too difficult? Try these video lessons and learn fast
                Oi Scouts


tuning : Standard


INTRO

e|---------------------------------------------------------------------------|
B|---------------------------------------------------------------------------|
G|--8~-----10-11-8~-----11-10-8~------10-11-8~------------4---6---8~---------|
D|--8~-----10-11-8~-----11-10-8~------10-11-8~------------4---6---8~---------|
A|--6~-----8--9--6~-----9--8--6~------8--9--6~------------2---4---6~---------|
E|---------------------------------------------pick-slide--------------------|


VERSE


e|---------------------------------------------------------------------------|
B|---------------------------------------------------------------------------|
G|--888888888888----1111------10-11--888888888888----1111------11-10---------|
D|--888888888888-99-1111-1111-10-11--888888888888-99-1111-1111-11-10---------|
A|--666666666666-99-9-9--1111-8--9---666666666666-99-9-9--1111-9--8----------|
E|---------------77------9-9----------------------77------9-9----------------|

we fight a cause that never died...
e|---------------------------------------------------------------------------|
B|---------------------------------------------------------------------------|
G|--888888888888----1111------10-11------------------------------------------|
D|--888888888888-99-1111-1111-10-11---4x-------------------------------------|
A|--666666666666-99-9-9--1111-8--9-------------------------------------------|
E|---------------77------9-9-------------------------------------------------|


Chorus
Anarchy people OI! OI! OI!...
e|---------------------------------------------------------------------------|
B|---------------------------------------------------------------------------|
G|--88888888-66----88888888-66----88888888-66--------------------------------|
D|--88888888-66-66-88888888-66-66-88888888-66-66-8888888888888---2x----------|
A|--66666666-44-66-66666666-44-66-66666666-44-66-8888888888888---------------|
E|--------------44-------------44-------------44-6666666666666---------------|

VERSE

CHORUS

e|---------------------------------------------------------------------------|
B|---------------------------------------------------------------------------|
G|-1111111111111111-8-6---------------1111111111111111-8-6-------------------|
D|-1111111111111111-8-6-6-8888-6-8888-1111111111111111-8-6-6-8888-11111111-2x|
A|-9-9-9-9-9-9-9-9--6-4-6-8888-6-8888-9-9-9-9-9-9-9-9--6-4-6-8888-11111111---|
E|-----------------------4-6666-4-6666---------------------4-6666-9-9-9-9----|

CHORUS

INTRO
            
Submit corrections

comments powered by Disqus
↑ Back to top | Oi Scouts Tabs for Anarchy People. Lyrics for acoustic guitar and electric guitar. Tablatures and chords are parodies/interpretations of the original songs. You may use it for private study, scholarship, research or language learning purposes only