» » »

Union Jack Thalls Cac Bass tabs (ver.1)

Artists:  A B C D E F G H I J K L M N O P Q R S T U V W X Y Z # 

Union Jack Thalls Cac Bass tabs (ver.1)

Oi Polloi
Rating:
0/5 (0 votes)

Hard to play? Try these video lessons and learn fast.
                (Intro)
Oi Polloi - Union Jack Thall´s Cac Intro

G:---------------|----------------|---------------|
D:---------------|----------------|---------------|
A:----5---5--5---|----------3-2---|2-2------------|
E:5-7----------7-|3---3---3-------|---3-0---0-3---|

G:---------------|----------------|---------------|
D:---------------|----------------|---------------|
A:----5---5--5---|----------3-2---|2-2------------|
E:5-3----------7-|3---3---3-------|---3-0---0-3---|

I know it´s cheap just to submit the Intro, but the rest is pretty mcuh this in a few varieties
            
Hard to play? Try these video lessons and learn fast. | Correct




comments powered by Disqus
↑ Back to top | Tablatures and chords are parodies/interpretations of the original songs. You may use it for private study, scholarship, research or language learning purposes only