» » »

Oi Polloi, Scum Tabs (ver.1)

Artists:  A B C D E F G H I J K L M N O P Q R S T U V W X Y Z # 

Scum Tabs (ver.1)

Oi Polloi Tabs
 Rating:
4/5 (4 votes)
Scum lessons Tabs too difficult? Try these video lessons and learn fast
                Oi Polloi - Scum

Riff 1
e:----------------|----------------|-----------------------|
b:----------------|----------------|-----------------------|
g:------9---9-9-9-|------7---7-7-7-|--------5-5-5-5-4-5-4-2|
d:7-7-7-9---9-9-9-|7-7-7-7---7-7-7-|7-7-7-7-5-5-5-5-4-5-4-2|4x
a:7-7-7-7---7-7-7-|7-7-7-5---5-5-5-|7-7-7-7-3-3-3-3-2-3-2-0|
e:5-5-5-----------|5-5-5-----------|5-5-5-5----------------|

Verse:
e:----------------|----------------|
b:----------------|----------------|
g:4-4-4-4-4-4-4-4-|5-5-5-5-7-7-7-7-|
d:4-4-4-4-4-4-4-4-|5-5-5-5-7-7-7-7-|3x
a:2-2-2-2-2-2-2-2-|3-3-3-3-5-5-5-5-|
e:----------------|----------------|

e:----------------|
b:----------------|
g:4-4-4-4-9-9-9-9-|
d:4-4-4-4-9-9-9-9-|
a:2-2-2-2-7-7-7-7-|
e:----------------|

Chorus:
e:----------------|----------------|
b:----------------|----------------|
g:----------------|----------------|
d:7-7-7-7-5-5-5-5-|3-3-3-3-2-------|2x
a:7-7-7-7-5-5-5-5-|3-3-3-3-2-------|
e:5-5-5-5-3-3-3-3-|1-1-1-1-0-------|

Riff1

Verse

Chorus

Riff1

Verse

Chorus (1 oktave higher)
e:-----------------------|-----------------------|
b:-----------------------|-----------------------|
g:14-14-14-14-12-12-12-12|10-10-10-10-09---------|
d:14-14-14-14-12-12-12-12|10-10-10-10-09---------|
a:12-12-12-12-10-10-10-10|08-08-08-08-07---------|
e:-----------------------|-----------------------|
            
Submit corrections

comments powered by Disqus
↑ Back to top | Oi Polloi Tabs for Scum. Lyrics for acoustic guitar and electric guitar. Tablatures and chords are parodies/interpretations of the original songs. You may use it for private study, scholarship, research or language learning purposes only