» » »

Oi Polloi, Nuclear Waste Tabs (ver.1)

Artists:  A B C D E F G H I J K L M N O P Q R S T U V W X Y Z # 

Nuclear Waste Tabs (ver.1)

Oi Polloi Tabs
 Rating:
4/5 (4 votes)
Nuclear Waste lessons Tabs too difficult? Try these video lessons and learn fast
                Intro 1: 
e|--------------------------------------------------------------------| 
B|--------------------------------------------------------------------| 
G|-4-4-4-4-4-4-4-4--5-5-5-5-5-5-5-5--6-6-6-6-6-6-6-6--3-3-3-3-3-3-3-3-| 
D|-4-4-4-4-4-4-4-4--5-5-5-5-5-5-5-5--6-6-6-6-6-6-6-6--3-3-3-3-3-3-3-3-| 
A|-2-2-2-2-2-2-2-2--3-3-3-3-3-3-3-3--4-4-4-4-4-4-4-4--1-1-1-1-1-1-1-1-| 
E|--------------------------------------------------------------------| 

Intro 2: 
e|--------------------------------------------------------------------| 
B|--------------------------------------------------------------------| 
G|-9-9-9-9-9-9-9-9-9-9-9-9-9-9-9-9-9-9-9-9-9-9-9-9--------------------| 
D|-9-9-9-9-9-9-9-9-9-9-9-9-9-9-9-9-9-9-9-9-9-9-9-9--------------------| 
A|-7-7-7-7-7-7-7-7-7-7-7-7-7-7-7-7-7-7-7-7-7-7-7-7--------------------| 
E|--------------------------------------------------------------------| 

Verse: 
e|--------------------------------------------------------------------| 
B|--------------------------------------------------------------------| 
G|-9--9-9-9-9-9-------------------------------------------------------| 
D|-9--9-9-9-9-9---7--7-7-7-7-7--9--9-9-9-9-9--12-11-9-9-9--------------| 
A|-7--7-7-7-7-7---7--7-7-7-7-7--9--9-9-9-9-9--12-11-9-9-9--------------| 
E|----------------5--5-5-5-5-5--7--7-7-7-7-7--10--9-7-7-7--------------| 

Chorus: 
e|--------------------------------------------------------------------| 
B|--------------------------------------------------------------------| 
G|-9-9-9-9-9-9-9-9-9-9-9-9--------------------------------------------| 
D|-9-9-9-9-9-9-9-9-9-9-9-9--9-9-9-9-9-9-9-9-9-9-9-9-------------------| 
A|-7-7-7-7-7-7-7-7-7-7-7-7--9-9-9-9-9-9-9-9-9-9-9-9-------------------| 
E|--------------------------7-7-7-7-7-7-7-7-7-7-7-7-------------------| 

Song structure: 

Intro 1 x5 
Intro 2 
Verse x4 
Chorus x2 
Verse x4 
Chorus x2 
Verse x4 
Chorus x4 
Verse x4
            
Submit corrections

comments powered by Disqus
↑ Back to top | Oi Polloi Tabs for Nuclear Waste. Lyrics for acoustic guitar and electric guitar. Tablatures and chords are parodies/interpretations of the original songs. You may use it for private study, scholarship, research or language learning purposes only