» » »

Oi Polloi, Nazi Scum Tabs (ver.2)

Artists:  A B C D E F G H I J K L M N O P Q R S T U V W X Y Z # 

Nazi Scum Tabs (ver.2)

Oi Polloi Tabs
 Rating:
4/5 (4 votes)
Nazi Scum lessons Tabs too difficult? Try these video lessons and learn fast
                E[------------------------------------------------------------------
B[------------------------------------------------------------------
G[-8-8-8-9--10-10-10-10-10-10-10-10--------------------------
D[-8-8-8-9--10-10-10-10-10-10-10-10-8-8-8-9-10-10-10-10-10-10-10-10--     
A[-6-6-6-7--8--8--8--8--8--8--8--8--8-8-8-9-10-10-10-10-10-10-10-10-
E[----------------------------------6-6-6-7-8--8--8--8--8--8--8--8--

E[---------------------------------------------------------
B[---------------------------------------------------------
G[-6-6-6-7-8-8-8-8-8-8-8-8---------------------------------------------
D[-6-6-6-7-8-8-8-8-8-8-8-8-8-8-8-8-8-8-8-8-8-8-8-8-8-8-8-8-<
A[-4-4-4-5-6-6-6-6-6-6-6-6-8-8-8-8-8-8-8-8-8-8-8-8-8-8-8-8-
E[-------------------------6-6-6-6-6-6-6-6-6-6-6-6-6-6-6-6-

chorus

E[---------------------------------------------------------
B[---------------------------------------------------------
G[-10-10-10-10------10-10-10-10-10-----10-10-10-10----------------------------------
D[-10-10-10-10-10---10-10-10-10-10-----10-10-10-10-10---------
A[-8--8--8--8--10*---8--8--8--8--8*----8--8--8--8--10*-----
E[-------------8-----------------6-----------------8-------


E[---------------------------------------------------------
B[---------------------------------------------------------
G[---------------------------------------------------------
D[-----3----------------------------------------------------
A[-6-8-3*--------------------------------------------------
E[-4-6-1---------------------------------------------------
            
Submit corrections

comments powered by Disqus
↑ Back to top | Oi Polloi Tabs for Nazi Scum. Lyrics for acoustic guitar and electric guitar. Tablatures and chords are parodies/interpretations of the original songs. You may use it for private study, scholarship, research or language learning purposes only