» » »

Nazi Scum Bass tabs (ver.1)

Artists:  A B C D E F G H I J K L M N O P Q R S T U V W X Y Z # 

Nazi Scum Bass tabs (ver.1)

Oi Polloi
Rating:
0/5 (0 votes)

Hard to play? Try these video lessons and learn fast.
                Standard Tuning (G,D,A,E)

Verse       (Part I)     (Part II)
-----------------------|---------------------
-----------------------|---------------------
-6-6-6-78-8*-----------|-4-4-4-56-6*---------
------------6-6-6-78-8*|------------5-5-5-5*-

At the second repeat of the verse, play
the Part II like this:
------------------ This part is used all the
------------------ time on the song,not only
-44----66--------- in the beggining...
----------5-5-5-5*

Chorus
---------------------------------------------
----------------------------------88-1010-77-
-8-8-8-6----8-8-8-6----8-8-8-6---------------
--------8-8*-------6-6*-------8-8*-----------

(Note)* = x7 (8* = -8888888- )
            
Hard to play? Try these video lessons and learn fast. | Correct




comments powered by Disqus
↑ Back to top | Tablatures and chords are parodies/interpretations of the original songs. You may use it for private study, scholarship, research or language learning purposes only