» » »

Oi Polloi, Free The Henge Bass tabs (ver.1)

Artists:  A B C D E F G H I J K L M N O P Q R S T U V W X Y Z # 

Free The Henge Bass tabs (ver.1)

Oi Polloi Tabs
 Rating:
4/5 (4 votes)
Free The Henge lessons Tabs too difficult? Try these video lessons and learn fast
1
                Standard Tuning (G,D,A,E)


Intro/Chorus
------------------------------------
------------------------------------
------8(b)-----6(b)-----4(b)--------
-66666----66666----66666----66666-4-


Verse
-------------------
-------------------
---------8p7h8-----
-7777777-----------
I have a strong feeling that this part
is wrong but I can't figure out anything
better.If you do,please let me know.


Bridge
-----------------
-----------------
------5------3-0-
-77777--77777----


Tab Explanation
---------------
b=bend
h=hammer on
p=pull off
            
Submit corrections

comments powered by Disqus
↑ Back to top | Oi Polloi Bass for Free The Henge. Lyrics for acoustic guitar and electric guitar. 1 Tablatures and chords are parodies/interpretations of the original songs. You may use it for private study, scholarship, research or language learning purposes only