» » »

Anti Police Aggro Tabs (ver.1)

Artists:  A B C D E F G H I J K L M N O P Q R S T U V W X Y Z # 

Anti Police Aggro Tabs (ver.1)

Oi Polloi
Rating:
0/5 (0 votes)

Hard to play? Try these video lessons and learn fast.
                OI POLLOI - ANTI POLICE AGGRO










Intro 1:
e|--------------------------------------------------|--------|
B|--------------------------------------------------|--------|
G|--8-----8--9--8-9-11-9-8--8-----8--9--8-9-11-9-8--|--------|
D|--8--9--8--9--8-9-11-9-8--8--9--8--9--8-9-11-9-8--|--9--9--|
A|--6--9--6--7--6-7-09-7-6--6--9--6--7--6-7-09-7-6--|--9--9--|
E|-----7-----------------------7--------------------|--7--7--|
 |                                                 |        |
e|------------------------------------------------|--------|
B|------------------7----------------------7------|--------|
G|--8-----8--9--8-9---9-8--8-----8--9--8-9---9-8--|--------|
D|-----9----------------------9-------------------|--9--9--|
A|------------------------------------------------|--------|
E|------------------------------------------------|--------|


Intro 2:
e|----------------------|-----------|
B|----------------------|-----------|
G|----------------------|-----------|
D|--9--6--2-----888888--|--9--6--7--|
A|--9--6--2-----888888--|--9--6--7--|
E|--7--4--0-----666666--|--7--4--5--|


After verse:
e|------------------------------------------------------|
B|------------------------------------------------------|
G|------------------------------------------------------|
D|--9-9-9-9-9-9-9-9-9-9-9-9-9-9-9-9-9-9-9-9-9-9-9-9-9-9-|
A|--9-9-9-9-9-9-9-9-9-9-9-9-9-9-9-9-9-9-9-9-9-9-9-9-9-9-|
E|--7-7-7-7-7-7-7-7-7-7-7-7-7-7-7-7-7-7-7-7-7-7-7-7-7-7-|
 |                                                      |
e|------------------------------------------------------|
B|------------------------------------------------------|
G|----7---7---7--7---7---7-9b-7---7-7-9-9b-7-----7--7---|
D|--9---9----9-9---9---9--------9--9-9---------9---9-9--|
A|------------------------------------------------------|
E|------------------------------------------------------|


Verse:
e|---------------------------------------------------------|
B|---------------------------------------------------------|
G|--8-------------8----8-9-11-9-8---------99-9-9-----------|
D|--8-9-99-9-99-9-8-99-8-9-11-9-8-7-7-7-7-99-9-9-9-9-9-99--|
A|--6-9-99-9-99-9-6-99-6-7-09-7-6-7-7-7-7-77-7-7-9-9-9-99--|
E|----7-77-7-77-7---77------------5-5-5-5--------7-7-7-77--|


Chorus:
e|-------------------------------------------------------|
B|-------------------------------------------------------|
G|----------4-5-4---------4-5-4---------4-5-4---------5--|
D|--4-4-4-4-4-5-4-4-4-4-4-2-3-2-4-4-4-4-2-3-2-4-4-4-4-5--|
A|--4-4-4-4-2-3-2-4-4-4-4-2-3-2-4-4-4-4-2-3-2-4-4-4-4-3--|
E|--2-2-2-2-------2-2-2-2-------2-2-2-2-------2-2-2-2----|
 |                                                       |
e|-------------------------------------------------------|
B|-------------------------------------------------------|
G|----------9h10b---------9h10b---------9h10b---------10-|
D|-------------------------------------------------------|
A|-------------------------------------------------------|
E|-------------------------------------------------------|


Bridge 1:
e|--------------------------|
B|--------------------------|
G|--------------------------|
D|--9-7-9-10-9--9-7-9-10-9--|
A|--9-7-9-10-9--9-7-9-10-9--|
E|--7-5-7-08-7--7-5-7-08-7--|

Bridge 2:
e|-------------------|
B|-------------------|
G|-------------------|
D|--4--4-4-2--2-2-2--|
A|--4--4-4-2--2-2-2--|
E|--2--2-2-0--0-0-0--|


Outro 1:
e|------------------------------------------------------------------------|
B|--------9-------------9--------------------------9-------------9--------|
G|----8-9---9-8-----8-9---9-8------------------8-9---9-8-----8-9---9-8-9b-|
D|--9------------9------------9------------9--------------9---------------|
A|------------------------------------------------------------------------|
E|------------------------------------------------------------------------|
 |
e|----------------------------------------...--|
B|----------------------------------------...--|
G|----------------------------------------...--|
D|--9------------6------------2---888888--...--|
A|--9------------6------------2---888888--...--|
E|--7------------4------------0---666666--...--|
            
Hard to play? Try these video lessons and learn fast. | Correct




comments powered by Disqus
↑ Back to top | Tablatures and chords are parodies/interpretations of the original songs. You may use it for private study, scholarship, research or language learning purposes only