» » »

Oingo Boingo, Sweat Tabs (ver.1)

Artists:  A B C D E F G H I J K L M N O P Q R S T U V W X Y Z # 

Sweat Tabs (ver.1)

Oingo Boingo Tabs
Rating:
0/5 (0 votes)
Sweat lessons Tabs too difficult? Try these video lessons and learn fast
                Listen for when to play this part throughout the song.
e------------------------------------------------------------------------|
b------------------------------------------------------------------------|
G----0-2-3--2--0---------------------------------------------------------|
D--0--------------0-2---2------------------------------------------------|
A------------------------2-----------------------------------------------|
E-------------------------0----------------------------------------------|

Between this riff is E minor and E5 chords.

Chorus
e-------------3----------0----------3-------------------------------|
b-------------3----------0----------5-------------------------------|
G-------------4----------0----------5-------------------------------|
D-------------5----------2----------5-----------------5-7--77-79797-|
A-------------5----------2------2-3-3----2-0----------3-5--55-57575-|
E--0----0-2-3-3----3-2-0-0----0--------------3--2--0----------------|

e------------------------------------------------------------------|
b------------------------------------------------------------------|
G------------------------------------------------------------------|
D-----------5-7--77-79797-----------5-7--77-79797------------5-7---|
A-----------3-5--55-57575-----------3-5--55-57575------------3-5---|
E--3--2--0------------------3--2--0------------------3--2--0-------|

e----------------------------------------------------------|
b----------------------------------------------------------|
G----------------------------------------------------------|
D--5-7---5-7---5--7-7-7-7----------------------------------|
A--3-5---3-5---3--5-5-5-5----------------------------------|
E----------------------------------------------------------|


Solo bridge
e----------------------------------------------------------|
b----------------------------------------------------------|
G---0-2-3-----0-2-0-----0-2-3--2-0---0-2-0-----------------|
D-0---------0---------0------------0-----------------------|
A----------------------------------------------------------|
E----------------------------------------------------------|

It's up to you to figure out the order.
            
Submit corrections

comments powered by Disqus
↑ Back to top | Oingo Boingo Tabs for Sweat. Lyrics for acoustic guitar and electric guitar. Tablatures and chords are parodies/interpretations of the original songs. You may use it for private study, scholarship, research or language learning purposes only